.

( )

A                                                   

 

ACA - CH

Aop oopa : op o

Intro. x2
1. 2.
I---0------------------------------------I---------I------I
I-----0-------0--------------------------I---------I------I
I-------2---0----------------------------I--------*I------I
I-2--------------4-5-4-0---------0-4---0-I-0-2-*I-2----I
I------------------------0-----2-----2---I---------I------I
I----------------------------0-----------I---------I------I

Em
Aa ap a o op
D A
epea y eea
G Bm A
e opoco eca,
Bm F#
a epa eca ce
Bm Bm Bsus2 Bm Bsus2
o ey cey

p.m. p.m.
----| ----------|
I-------------------------------I
I-------------------------------I
I*-----------------------------*I
I*-2-3-2-0-2---2-3-2-3---5-3---*I
I--2-3-2-0-2---2-3-2-3---5-3----I
I-------------------------------I

ce oa o cye e oo
ee a oy oex
Hac o opoe aa
a cpyax oo oaac
a ece o.

pe.

G A Bm
a a a c - eo,
G A Bm
a coa ea.
G A Bm
a ye opo e cec, coa e , e e ,
G A G A G A Bm
e pe, e , e coo opo,
G A F#
e ec py.

Em N.C. Riff 1.
ope o ee, ope e eca, ---------
Em Riff 1. ---------
e opoa opoo co. ---------
-0-2-----
ope o ee, ope e cxa, -----2-1-
o ey eoa po. ---------
ooe oo, a opoy, po,
Ce aa ocp.
eo eeca oce poa
F#
eepo o epo e.

pe.

Solo.
A.H.
-----------------------------------------------
-----------------------------------------------
-----------------------------------------------
------------------------------------/7-5-4-----
--7-7>(9)>7~~--------------7h9--7----------5---
--------------10p9p7---7h10---10-9-------------

-----------------------------------/12-10-9----------------
-----------------------------------------------------------
----9h11-------7-9-7>(9)>7~~----7-9--9--7-6----------7--9--
--9------9---9----------------9---------------9-9-9--------
-----------------------------------------------------------
-----------------------------------------------------------
\
------------------------------------------------------------+- |
------------------15h17h19-14>(15)--14>(15)>14\12--/19-17---+- |
--11--14>(16)---16-7h 9h11--6>(7)----6>( 7)> 6\4---/11-9--16-- |
-------7>(9)-----9----------------------------------------9-+- |
------------------------------------------------------------+- |
------------------------------------------------------------+- |
|
---------------------------+- |
-----15-14-15p14h15>(17)>15-- |
--16--7--6--7p 6h 7>( 9)> 7-- |
---9-----------------------+- |
---------------------------+- |
---------------------------+- |
|
-----------------------------------------------------------+- |
----------15h17h19-14>(15)--14>(15)>14\12--17p15h17-17>(19)-- |
--16----16-7h 9h11--6>(7)----6>( 7)> 6\4----9p 7h 9- 9>(11)-- |
---9-----9-------------------------------------------------+- |
-----------------------------------------------------------+- |
-----------------------------------------------------------+- |

; o ooy e oa, oc: eeo yce coo
; oa eo paec y apa c epao oay.

Intro.

Aa ap a o op
epea y eea.
Hac o opoe aa,
a cpyax oo oaac
a ece o.

pe. x2