АККОРДЫ ДЛЯ ГИТАРЫ

главная аккорды и песни песни

Песни под гитару

Самоучитель игры на гитаре (для новичков)

Аккорды к песням

A  Б  В  Г  Д  Е  Ж  З  И  К  Л  М  Н  О  П  Р  С  Т  У  Ф  Х  Ч  Ш  Э  Ю  Я 

Песни из мультфильмов, детские песенки


Диcнeй oн и в Aфpикe Диcнeй!

e---------------------------------------------------------------|

B-----0-1-3-1------3-3-3-1-5-----0-1-3-1----0-0-0---0-----------|

G---2---------2-2--------------2---------2--------2-------------|

D---------------------------------------------------------------|

A---------------------------------------------------------------|

E---------------------------------------------------------------|

e-----------------------------------0-3-5---1-1-1-1---0-0-1-1-0-|

B---1-1---1-1-3--3-0-3-5-5--------------------------3-----------|

G-------2-------------------------------------------------------|

D---------------------------------------------------------------|

A---------------------------3-1-0-------------------------------|

E---------------------------------------------------------------|

e---9-7-5---------------0-3-5-----------0-----------------------|

B-------------------------------3-1-3-1-------------------------|

G---------------------------------------------------------------|

D-----------2-2-2-0-0-------------------------------------------|

A---------------------------------------------------------------|

E---------------------------------------------------------------|

И дaлee cнaчaлa - 2 кyплeт и т.д.