АККОРДЫ ДЛЯ ГИТАРЫ

главная аккорды и песни песни

Песни под гитару

Самоучитель игры на гитаре (для новичков)

Аккорды к песням

A  Б  В  Г  Д  Е  Ж  З  И  К  Л  М  Н  О  П  Р  С  Т  У  Ф  Х  Ч  Ш  Э  Ю  Я 

Песни из мультфильмов, детские песенки


e---------------------------------------------------------------|

B---------------------------------------------------------------|

G---------------------------------------------------------------|

D------------------------1-0------------------------------------|

A---1-2--4-5---1-2--4-5--------2-5--9-8---7-5-2-0-2-------------|

E---------------------------------------------------------------|

e---------------------------------------------------------------|

B---------------------------------------------------------------|

G---------------------------------------------------------------|

D------------------------1-0------------------------------------|

A---1-2--4-5---1-2--4-5--------2-5--9-8---7-5-2-0-2-------------|

E---------------------------------------------------------------|

e---------------------------------------------------------------|

B---------------------------------------------------------------|

G---------------------------------------------------------------|

D---------------------------------------------------------------|

A---7-5-3-5-3-1-3-1-0-1-----------------------------------------|

E-------------------------543210~-------------------------------|

Дaльшe - бoльшe... В cмыcлe, вcё пoвтopяeтcя.