( )

A                                                   

ayyc oyc - poy o oe

intro:

1|-7-7-7---------7-7-7----7---|-----------------------------------|

2|-8------8-8-8--8------8---8-|-10-10-10--7-7-7--10-10-10--7-10-7-|

3|-9-------------9------------|-8----------------8----------------|

4|----------------------------|-9----------------9----------------|

5|-7-------------7------------|-----------------------------------|

6|----------------------------|-7----------------7----------------|

1|-5-5-5---------5-5-5----5---|----------------------------|

2|-5------5-5-5--5------5---5-|-8-8-8---------8-8-8----8---|

3|-5-------------5------------|-9------9-9-9--9------9---9-|

4|----------------------------|-9-------------9------------|

5|-0-------------0------------|-7-------------7------------|

6|----------------------------|----------------------------|

(2 paa)

riff:

(10-9 ye pa oeo)

1|-7----7-7-8-10-|----10-8/7-----|--------8-8-7----|--------|

2|-8---8---------|---10------10~-|------10------10-|-8/7----|

3|----7----------|--11-----------|----9------------|-----9~-|

4|---9-----------|-0-------------|-10--------------|--------|

5|---------------|---------------|-----------------|--------|

6|---------------|---------------|-----------------|--------|

|-----7---7-|-----5---5-|-----5---5---5-|-----2---2~-|

|-3/8---8---|-3/7---7---|-1/5---5---5---|-0/4---4----|

|-----------|-----------|---------------|------------|

|-----------|-----------|---------------|------------|

|-----------|-----------|---------------|------------|

|-----------|-----------|---------------|------------|

1|-7----7-7-8-10-|----10-8/7-----|--------8-8-7----|--------|

2|-8---8---------|---10------10~-|------10------10-|-8/7----|

3|----7----------|--11-----------|----9------------|-----9~-|

4|---9-----------|-0-------------|-10--------------|--------|

5|---------------|---------------|-----------------|--------|

6|---------------|---------------|-----------------|--------|

|-----8---8-|-----7---7-|-----5---5-|--------|--------|--2-2---|---|

|-5/8---8---|-3/8---8---|-1/5---5---|----0---|----0---|---0.-0-|---|

|-----------|-----------|-----------|---2-2--|--2--2--|-----2--|---|

|-----------|-----------|-----------|--1---1-|---1.-1-|--------|---|

|-----------|-----------|-----------|-2------|-2------|-2------|-2-|

|-----------|-----------|-----------|--------|--------|--------|---|

Em

C paa pa aoco Ape, o: V__v^v^V_v_v

H

A Cace xo o oe.

Am

Ape ocaa o ecape,

Em

A Cace ox e.

Ape apa: oy pa,

Ec e opoe cepe!

Cace oe: \"Cooo, Ape.

aoo cepea ec e.

G D

p-: , a a ope

Am Em

oaec pec:

G D

o eco coa,

Hsus H

oc-a a e.

G D

A oa aoec,

Am Em

opaac aa,

C G

y o oe, y o oe,

Hsus H

y o oe co o.

riff:.

o, e, a acax ca poa,

ep opo py a peco.

Oc e ceac, oae ypaa,

A pace oca a oo.

Oee Cace oy cepax

o oo a oo.

epo ypa! . Ape ceax

ope c ecap oo.

p-:.

intro:.