( )

A                                                   

Gadd11 Gadd11+

1|-------------7---|-------------7---|-------------7---|-------------7---|

2|-----8----9------|-----8----9------|-----8----9------|-----8----9------|

3|-10--------------|-10------------7-|-10------------7-|-10------------7-|

4|---12--10--12--10|---10--12--10----|---10--12--10----|---10--12--10----|

G6 G6

1|-------------7---|-------------7---|-------------7---|-------------7---|

2|-----8----9------|-----8----9------|-----8----9------|-----8----9------|

3|-10--------------|-10------------7-|-10------------7-|-10------------7-|

4|---12--10--12--10|---10--12--10----|---10--12--10----|---10--12--10----|

G

1|--------------|

2|-9-8----------|

3|----10-8------| 2 paa.

4|--------9-12--|

Cm G#7Maj

ec oy poea

Fm9+ B7*

a opo eea

Cm G#7Maj

a ex pyeax

(Cm(add11)) B G B G B G

ox exax

Cm Fm9+ B7sus G

paap, apaop

Cm Fm9+

a oo paec op

B7sus G

apaop

Ec cea aa

Fm9+ B7* G

oepea e p

ocaac opa

B G B G

a - oac pa

paap, apaop

py ccae op

apaop

[solo:]

Cm Fm9+ B7* G

2|---3-4----3-4-3----------------------------| |---3-4|

3|--5------5-----5-3------0-1-----0-1-0------| - 2 paa |--5---|

4|-5------5---------6--3-3-----3-3------3-1-0| |-5----|...

eo oae Cacap

epoe cpaae cap

e oe, ap co po

pyo oo

apaop, paap

aaec oap

paap

ooe oo

apoe co

yp cay o poa

po opo Acepa

apaop, paap

apaec aap

paap

[solo]

--

B7* - 113134

G#7Maj - 336543

B7sus - 113141