( )

A                                                   

Intro(outro):

 

F#m Hm Eb F#m

e|------------4----2--4------2----------5----4--4------2-------

h|-------2---------2------3---------6--------4-------2---------

g|-----2---2----2-------4---------4---4---4--------2-----------

d|--4-------------------------------------------4------4-------

a|--------------------2---------4------------------------------

e|------------------------------------------------------------- x 4

 

a pe:

F#m Hm E A

e|---------4---2--4-----2---------2----0--2------0--\\

h|------2----2--------3---------0----0---------2----\\

g|----2----2--------4---------1----1---------2------\\

d|--4----------------------2------------------------\\

a|----------------2-----------------------0---------\\

e|--------------------------------------------------\\

 

F#m Hm E Db

e|--------4----2--4-------2--------2----0--7-------6--

h|------2----2----------3--------0----0---------4-----

g|----2----2---------4---------1----1---------6-------

d|-4--------------------------------------------------

a|----------------2------------------------4----------

e|---------------------------0------------------------