( )

A                                                   

e(aa a...)

 

1|---------3---2--4-----2-4(16)-2(14)---------5---4-4---2--4(16)-2(14)-

2|-----2--------------3-------------------6---6---6----2---------------

3|---2---2---2------4-------------------6---6---6-----2----------------

4|---------------------------------------------------------------------

5|----------------2-------------------4--------------------------------

6|-2------------------------------------------------2------------------

 

1|---------------------4-2------------------2--

2|--2-2-----------3---3----6----------------2--

3|--2---4-4-2-2---4--4-----6-6-6-4-4--------2--

4|--4-----------6-4-4------6---------7-7-6--4--

5|----------------2--------4----------------4--

6|-2----------------------------------------2--

 

{acpoe apy a o a 5-o ay epo cpy a oa (440 Hz),a ce ocae cpy o epo}(

 

(Aop ec)

Gmb Cmb E A Db

1|-2----2----0----0----4----

2|-2----3----0----2----6----

3|-2----4----1----2----6----

4|-4----4----2----2----6----

5|-4----2----2----0----4----

6|-2----2----0----0----4----

 

Gmb Cmb

a a aaa a a a

E A

a a aaa a a a

Gmb Cmb

a a aaa a a a

E Db

a a aaa a a a

 

 

Gmb

Cep ya eo ayo

Cmb

ep apo cpyo ay

Db

o apaa c ypa o eepa

Gmb

pe acee aec eoc

Gmb

acyae o ce apae

Cmb

a, exoa, oo apep

Db

ac ya, o ae

Gmb

coa aay ce pocae

Gmb Cmb

aa a , aa pa o oa

E A

aa a ex, o c a oa

Gmb Cmb

aa a , y poa oa

E Db

oe ex, o c a oa

 

eo a a co ya

Cec o yaa pa

Xoec ep, o c ye ooc

oo oap o pae

oep, pao, e ypa oa

ye e oo caco

ye a cae oe oca

ye eo ee opaca

 

aa a , epc, pa, o oa

aa a ex, o oa e

aa a , y poa oa

aa a ex, o oa (e)

 

aa a x, aa a ac

a Cp, a aa

a ce ax opoo

a pye, a o

aa a ac, aa a ac

a ca, a cea

a oee opea

aa oe, capa

 

capo aoe a oopa

ea, o oap paco ap

Cy a a, ep 45-o

ea yeeo ocoa

aax pa a paccee e coeo

Co e o oe pacaxao

apa coacx oo coax

oa o, oa cap

 

aa a , aa a e

aa a , aa oe ex, o c a