( )

A                                                   

#----------------------------------PLEASE NOTE---------------------------------#

#This file is the author\'s own work and represents their interpretation of the #

#song. You may only use this file for private study, scholarship, or research. #

#------------------------------------------------------------------------------#

 

pya/Band: OPPO EAA |KORROZIA METALLA

ec/Song: ope e |The Viking And His Sword In Storm

Ao/Album: Ope Caa |Orden Of Satan

o/Year: 1988 |1988

 

oeap/Comments:

I think my solo transription doesn\'t well and I also didn\'t wrote

the 2nd part of solou - it\'s pretty hard to explain how it is played.

If you have it, mail me, pls. Thanx for you attention. Enjoy!

 

TablEdited by KindeR-NecRomantic (kinder_nr@fromru.com)

Tuning: EADGBE [Standart]

 

Intro: x4 (1: gt, 2: gt+bs, 3,4: ...+dr)

G|-------------------------------------------------------4--5---7/9--|

D|-9/7-7-7-7-7-7-7-9/7-7-7-7-7-7-7--9/7-7-7-7-7-7-7-9/7--4--5---7/9--|

A|-9/7-7-7-7-7-7-7-9/7-7-7-7-7-7-7--9/7-7-7-7-7-7-7-9/7--2--3---5/7--|

E|-7/5-5-5-5-5-5-5-7/5-5-5-5-5-5-5--7/5-5-5-5-5-5-5-7/5--------------|

 

verse: x4

G|-------------------------------------------------------------7/9--|

D|-7-7-7-7-7-7-7-7-7-7-7-7-7-7-7-7-7-7-7-7-7-7-7-7-7-7-9-9-10107/9--|

A|-7-7-7-7-7-7-7-7-7-7-7-7-7-7-7-7-7-7-7-7-7-7-7-7-7-7-9-9-10105/7--|

E|-5-5-5-5-5-5-5-5-5-5-5-5-5-5-5-5-5-5-5-5-5-5-5-5-5-5-7-7-8-8------|

 

Intro X2

Verse X4

 

pre-chorus: x2

D|-7-------------7-10--------------7-------------7-4--444-444-444-44-|

A|-7-------------7-10--------------7-------------7-4--444-444-444-44-|

E|-5-------------5-8---------------5-------------5-2--222-222-222-22-|

Ceep eep...

 

chorus: x4

|-7---9---109-9-7---7-7-7-7-7-7-7--|

|-7---9---109-9-7---7-7-7-7-7-7-7--|

|-5---7---8/7-7-5---5-5-5-5-5-5-5--|

ope e...

 

Verse X4

Pre-chorus X2

Chorus X4

 

Solo:

e|-5-------4-------8--7----5--4----5--4----2--1----2--1-------------|

H|---------------------------------------------------------2--------|

|

D|-7-7-7-7-6-6-6-6-7-7-7-7-7-7-7-7-7-7-7-7-7-7-7-7-2-2-2-2-2-2-2-2--|

A|-7-7-7-7-6-6-6-6-7-7-7-7-7-7-7-7-7-7-7-7-7-7-7-7-2-2-2-2-2-2-2-2--|

E|-5-5-5-5-4-4-4-4-5-5-5-5-5-5-5-5-5-5-5-5-5-5-5-5-0-0-0-0-0-0-0-0--|

 

D|-3-5-6-5-7-5-8---3-5-6-5-7-5-8---???????????????????????????????--|

|

D|-3-3-3-3-3-3-3-3-3-3-3-3-3-3-3-3-7-7-7-7-7-7-7-7-7-7-7-7-7-7-7-7--|

A|-3-3-3-3-3-3-3-3-3-3-3-3-3-3-3-3-7-7-7-7-7-7-7-7-7-7-7-7-7-7-7-7--|

E|-1-1-1-1-1-1-1-1-1-1-1-1-1-1-1-1-5-5-5-5-5-5-5-5-5-5-5-5-5-5-5-5--|

 

e|--------------------------------------------------------7---------|

H|---------------------------------2-------4-------6----------------|

G|------------------------------------------------------------------|

D|-3-5-6-5-7-5-8---3-5-6-5-7-5-8------------------------------------|

|

D|-3-3-3-3-3-3-3-3-3-3-3-3-3-3-3-3-7--------------------------------|

A|-3-3-3-3-3-3-3-3-3-3-3-3-3-3-3-3-7--------------------------------|

E|-1-1-1-1-1-1-1-1-1-1-1-1-1-1-1-1-5--------------------------------|

= let ring

 

Chorus X8

Pre-chorus X2

Chorus X4

 

Created with TablEdit http://www.tabledit.com/

 

 

ec/Lyrics:

 

e oa e oa e oa pay

׸p ac eo epcy o

Cep a ao po a ea aco pe

e oa pa oepe o eeo py

 

op o ac op o a pcy o

e ppa ece o ac o cep cac

e po ec a cepe O op

ece ca a aee c poa oop

 

Ceep eep - a aopa

y op - oc cpa

ope e

ope e

ope e

ope e

 

p oe a ea aepaec o

pa pyo ca cep poa po

e poc cep yac pao ee oap

e cpa ope co yo paap

 

Ceep eep

a aopa

y op

oc cpa

ope e

ope e

ope e

ope e

 

Ceep eep

a aopa

y op

oc cpa

ope e

ope e

ope e

ope e