АККОРДЫ ДЛЯ ГИТАРЫ

главная аккорды и песни песни

Песни под гитару

Самоучитель игры на гитаре (для новичков)

Аккорды к песням

A  Б  В  Г  Д  Е  Ж  З  И  К  Л  М  Н  О  П  Р  С  Т  У  Ф  Х  Ч  Ш  Э  Ю  Я 

Коррозия металла

LUTSIFER INTRO:

e |---------------------------------------------------------------|

B |---------------------------------------------------------------|

G |---------------------------------------------------------------|

D |-3/-5-5-5/-8-8-5-3--3/-5-5-5-8--5--3/-5-5-5-8-8-5-3--3/-5-5-5--8LET


A |-1/-3-3-3/-6-6-3-1--1/-3-3-3-6--3--1/-3-3-3-6-6-3-1--1/-3-3-3--6RING

E |---------------------------------------------------------------|

PLAY 3x

e |---------------|------------------|-----------------------------|

B |---------------|------------------|-----------------------------|

G |---------------|------------------|-----------------------------|

D |-3-5-5-5-8--5--|-3-5-5-5-8ring----|-----------------------------|

A |-1-3-3-3-6--3--|-1-3-3-3-6--------|-----------------------------|

E |---------------|------------------|-----------------------------|

 

Second intro, verse (2x) another verse part. Heavy P.M.

e |---------------------------------|------------------------------|

B |---------------------------------|------------------------------|

G |---------------------------------|------------------------------|

D |-3-4-5---5--5--5-5-4-3---3--3--3-|-3-4-5--rest, drums only------|

A |-1-2-3-333333333-3-2-1-111111111-|-1-2-3------------------------|

E |---------------------------------|------------------------------|

Chords sound very muted.

Prechorus-? CHORUS (repeat):

E||-----------------||---------------------------------------------|

B||-----------------||---------------------------------------------|

G|*-----------------*|---------------------------------------------|

D||-3-4-5---5--5--5-||---------------------------------------------|

A|*-1-2-3-333333333-*|---------------------------------------------|

E||-----------------||---------------------------------------------|

 

SOLO (slow) (rhythm) 4x then verse section with solo.

e |--------------------|-------------------------------------------|

B |--------------------|-------------------------------------------|

G |-3/-5--8--10--8-7-5-|-------------------------------------------|

D |-3/-5--8--10--8-7-5-|-------------------------------------------|

A |-1/-3--6--8---6-5-3-|-----------------------------------------|

E |--------------------|-------------------------------------------