( )

A                                                   

EEOO CPAE
cyee(2 paa):
Dm Am Dm 2 paa
F Am Dm 2 paa
____Dm___Am____Dm
eeoo cpae,
_____Dm____C______Dm
e ce e cac e,
_____Gm_____C____F____B
e Coa e ca yo,
__B_______C______Dm
A e - opo oo.
pop:Gm C F B B A Dm
oopx pyeax
oox ecax
epoe o ex pe
ao x .
pop:Gm C F B B A Dm
_Dm_______________C
o c o o -
____F_____________C
x pe e e po.
Gm________________C
oxc ec p,
B________________A
poa oyc p.
Dm___________C
׸pa ca oe
F_________________C
aee o cepe,
___Gm__C____F____C
a ey oa po,
B____C___Dm
ee o.
pop:Gm C F B B C Dm
(aop, a aae):
ye cpa o
C eo yo,
e coo opop a ycax
cepa cee cpax.
o oa
ye e a ya -
a cpe ppax ep
op Opopy.
_Dm______C_______Dm
Eo epa a o,
_______________C
Coo ac paoo,
__________F______C
Ca eoy c.
Dm______C________Dm
e oc o coa
____________C
ao ce aoa,
______________F________C
oo a oyx epc.
_Gm_____________C
oe, ee o y peco,
__A_________Dm
o-o ac pa cyo.
_Gm____________C
a eco oxyc.
_____F_____A
ae.
coo Juron:
B C A Dm B C A 2 paa
B C Dm
B C
Dm B C
o yco xop:Dm C B A
ae ec: Dm C B A
B C A 2 paa
Dm C B A 2 paa
Cya ae-o acae: Gm F A
aop, a aae:
o e c coo -
ep cyo
ye ycy ey,
c oo oy.
yc e eeo y-
O o oay.
cy - eep a o
a coo o.
Ooae:Gm C F B B A Dm 2 paa
pya:e
ec:ca a
acpoa Eb (aca Powertab'e, o xoe, oy pca)
Intro
Gtr I
3x
||-------------------------------------||
||o-----8-------6---------------------o||
||----7---7---5---5-7---7-8-(8)---8----|| o coax oaa, o o e c.
||--5-------3---------7---------8---8--||
||o-----------------5-----6-(6)-------o||
||-------------------------------------||
|
| Gtr II
| 3x
||-------------------------------------||
||o-----------------------------------o||
||------3-------2----------------------||
||----5---5---3---3-3---3-5-(5)---5----||
||o-------------------5---------6---6-o||
||--3-------1-------5-----6-(6)--------||

|-------------------------------------|
|-------------------------------------|
|-------12---------10----7---7-8-(8)--|
|----12----12---10----10---7---8-(8)--|
|-10----------8----------5-----6-(6)--|
|-------------------------------------|
|
|-------------------------------------|
|-------------------------------------|
|--------3----------2-----------------|
|-----5-----5----3-----3-3---3-5-(5)--|
|--------------------------5---6-(6)--|

|--3----------1----------5-----6-(6)--|
Verse

Gtrs I, V
|---------3---------------3-------|---------3---------------6--------|
|-----3-----3---3-----4-----4-----|-3h4-------4---------6-----6------|
|---3---3-----3-----3---3---------|-----5-------5-----7---7----------|
|---------------------------------|-------5-------5------------------|
|-----------------6-----------6-5-|-3--------------------------------|
|-3-------------------------------|-----------------6-----------6-5--|
|---------3---------------3-------|---------3---------------6--------|
|-----3-----3---3-----4-----4-----|-3h4-------4---------6-----6---6--|
|---3---3-----3-----3---3---------|-----5-------5-----7---7-----7----|
|---------------------------------|-------5-------5------------------|
|-----------------6-----------6-5-|-3--------------------------------|
|-3-------------------------------|-----------------6----------------|
|--------------5-----------------3-------|---------5---------------6--------|
|------6----------6----6-----4-----4---4-|-----6-------6-------8-------8----|
|---5------5---------5-----3---3-----3---|---5---5---5---5---7---7---7---7--|
|----------------------------------------|-----------------5----------------|
|-8----------------------6---------------|-8--------------------------------|
|----------------------------------------|----------------------------------|
|
|----------------------------------------|----------------------------------|
|----------------------------------------|----------------------------------|
|----------------------------------------|----------------------------------|
|---7-10-(10)--8h10p=8S7-8---------------|----------------------------------|
|---8-12-(12)-10h12p10S8-6---------------|----------------------------------|
|----------------------------------------|----------------------------------|
2/4
|---------3---------------3--|------|
|-----4-------4---------4----|------|
|---3---3---3---3-----5------|------|
|-------------------5--------|------|
|-6---------------3----------|------|
|----------------------------|------|
|
| Gtr III
|----------------------------|------|
|----------------------------|------|
|----------------------------|------|
|----------------------------|-3----|
|----------------------------|-3----|
|----------------------------|-1----|
Chorus
GmIII(typeEb) Cm Bb FI
4/4
Gtrs I, V
|-3-3-3-3-3-3-3-3-3-3---|-3-3-3-3-3-1-x-x-1-x-x-----|
|-3-3-3-3-3-4-4-4-4-4---|-4-4-4-4-4-3-x-x-1-x-x-----|
|-3-3-3-3-3-3-3-3-3-3---|-5-5-5-5-5-3-x-x-2-x-x-----|
|-5-5-5-5-5-5-5-5-5-5---|-5-5-5-5-5-3-x-x-3-x-x-----|
|-5-5-5-5-5-6-6-6-6-6---|-3-3-3-3-3-1-x-x-3-x-x-----|
|-3-3-3-3-3-3-3-3-3-3---|-----------------1-x-x-----|
|
| Gtr III
| PM------------|
|-----------------------|---------------------------|
|-----------------------|---------------------------|
|-----------------------|---------------3-------3-2-|
|-5---------5-----------|-5-----------3---3---3-----|
|-5---------6-----------|-3---------1-------0-------|
|-3---------6-----------|---------------------------|
GmIII(typeEb) Cm Bb FI
|-3-3-3-3-3-3-3-3-3-3----|-3-3-3-3-3-1---x-x-1---x-x-|
|-3-3-3-3-3-4-4-4-4-4----|-4-4-4-4-4-3---x-x-1---x-x-|
|-3-3-3-3-3-3-3-3-3-3----|-5-5-5-5-5-3---x-x-2---x-x-|
|-5-5-5-5-5-5-5-5-5-5----|-5-5-5-5-5-3---x-x-3---x-x-|
|-5-5-5-5-5-6-6-6-6-6----|-3-3-3-3-3-1---x-x-3---x-x-|
|-3-3-3-3-3-3-3-3-3-3----|-------------------1---x-x-|
|
| PM------------|
|------------------------|---------------------------|
|------------------------|---------------------------|
|------------------------|---------------3-------3-2-|
|-5---------5------------|-5-----------3---3---3-----|
|-5---------6------------|-3---------1-------0-------|
|-3---------6------------|---------------------------|
Verse 2
Gtrs I, V
|---------3---------------3-------|---------3---------------6--------|
|-----3-------3-------4-----------|-3h4-------4---------6-----6------|
|---3---3---3---3---3---3---3-----|-----5-------5-----7---7----------|
|---------------------------------|-------5-------5------------------|
|-----------------6-----------6-5-|-3--------------------------------|
|-3-------------------------------|-----------------6-----------6-5--|
|---------3---------------3-------|---------3---------------6--------|
|-----3-------3-------4-----------|-3h4-------4---------6-------6----|
|---3---3---3---3---3---3---3-----|-----5-------5-----7---7---7---7--|
|---------------------------------|-------5-------5------------------|
|-----------------6-----------6-5-|-3--------------------------------|
|-3-------------------------------|-----------------6----------------|
|----------5-------------------------3-------|
|-----6---------------6----------4-------4---|
|---5---5------5-----------5---3---3---3---3-|
|--------------------------------------------|
|-8--------------------------6---------------|
|--------------------------------------------|
|
| Gtr II
|--------------------------------------------|
|--------------------------------------------|
|--------------------------------------------|
|-------7-10-(10)--8h10p=8S7-8---------------|
|-------8-12-(12)-10h12p10S8-6---------------|
|--------------------------------------------|
|---------5---------------6--------|
|-----6-------6-------8-------8----|
|---5---5---5---5---7---7---7---7--|
|-----------------5----------------|
|-8--------------------------------|
|----------------------------------|
|
|----------------------------------|
|----------------------------------|
|----------------------------------|
|----------------------------------|
|----------------------------------|
|----------------------------------|
2/4
|---------3---------------3--|------|
|-----4-------4---------4----|------|
|---3---3---3---3-----5------|------|
|-------------------5--------|------|
|-6---------------3----------|------|
|----------------------------|------|
|
| Gtr III
|----------------------------|------|
|----------------------------|------|
|----------------------------|------|
|----------------------------|-3----|
|----------------------------|-3----|
|----------------------------|-1----|
Coo oo oy.