( )

A                                                   

pya:e
ec:Poe
`Poe ` (ca pyoc) (Cpo - D#)
Tab by Alexander Malyshev (torturer@mail.ru)
Rhythm Guitar:
Em--C--A--D-H (ea) (2paa)
Em--C--A--D-H (oe) (2paa)
Verse1:
o(Em) e e ea . o(C) po cex
a(A) ocy ya(D) e (H)?
(Em) y paa oo (C)oy cex
a(A)c o . o(D) ec(H).
Bridge:
(Em)e, o py(D), (H)e oeccy(Em)
(Em)Xoy c coo(G) (D),
(Em)o oe ca(D) cepe(H) y(Em)
(Em) oe ca(G) pea(D).
Em--C--A--D-H (ea)
Em--C--A--D-H (oe)
Chorus:
e(Em) o e(C)
e pa(D) e ocy(H),
O(C) copy(Em) ca(F#) (H).
Coo (Em) ce(C)p
(D) oo papy(H),
o(C)o ca(Em) co(F#)o ep(H).
ep...
Em--C--A--D-H (oe) (2paa)
Verse2:
p(Em)pao cep, coa(C) a
e(A)oc e e(D) pa(H).
(Em)p a apoe yca(C) oa,
Pa(A)a cec aopo(D) ea(H).
Bridge:
(Em)o co e(D), pae(H) o cpa(Em)x.
(Em) e y(G) oa(D)!
(Em)pyo y(D) cy(H) pya(Em)x
(Em) e pca(G)o a(D)!
Em--C--A--D-H (ea)
Em--C--A--D-H (oe)
Chorus:
e(Em) o e(C)
e pa(D) e ocy(H),
O(C) copy(Em) ca(F#) (H).
Coo (Em) ce(C)p
(D) oo papy(H),
o(C)o ca(Em) co(F#)o ep(H).
ep...
Solo:
Am-Am-Am-Am-Am-Am(a c. o)-G(a cy) (2 paa)
Em-Em-Em-Em-Em-Em - F (eep ce oe) (4 paa)
Theme:
H (oe, oxy pa, aca ooo 16 ao! Ec aoec oo opooa opa H ;)
Em--C--A--D-H (oe) (2paa)
Verse3:
e(Em)o, o py, oo(C) o cey, -
o(A)o (D) po(H).
Cpa(Em)x - o caoc (C) ooy:
o(A) cyac, ye(D) oe(H).
Bridge:
(Em)a e po(D)e ce(H)pe cpa(Em)x.
(Em)y ep e(G) oy(D)x.
(Em)ae c(D)y (H) opa(Em)x,
(Em)e ecce(G)p y(D)x!
Em--C--A--D-H (ea)
Em--C--A--D-H (oe)
Chorus:
e(Em) o e(C)
e pa(D) e ocy(H),
O(C) copy(Em) ca(F#) (H).
Coo (Em) ce(C)p
(D) oo papy(H),
o(C)o ca(Em) co(F#)o ep(H).
Am-Am-Am-Am(a c. o)-Am(a cy).
Lead Guitar: (paec ce paec `ocya`)

D#||---------------------------|--------------------------|
A#||---------------------------|--------------------------|
F#||*-----------0-----------0--|-----------0-----------0--|
C#||*--------2-----------2-----|--------2-----------2-----|
G#||------2-----------2--------|-----2-----------2--------|
D#||---0-----------0-----------|--0-----------0-----------|

--------------------------|--------------------------|
-----------1-----------1--|-----------1-----------1--|
--------0-----------0-----|--------0-----------0-----|
-----2-----------2--------|-----2-----------2--------|
--3-----------3-----------|--3-----------3-----------|
--------------------------|--------------------------|

--------------------------|--------------------------|
-----------2-----------2--|-----------2-----------2--|
--------2-----------2-----|--------2-----------2-----|
-----2-----------2--------|-----2-----------2--------|
--0-----------0-----------|--0-----------0-----------|
--------------------------|--------------------------|

-----------2-----------2--|-----------2-----------2---||
--------3-----------3-----|--------4-----------4------||
-----2-----------2--------|-----4-----------4--------*||
--0-----------0-----------|--4-----------4-----------*||
--------------------------|---------------------------||
--------------------------|---------------------------||

--------------------------|---------------------------|
--------------------------|---------------------------|
*-------------------------|---------------------------|
*--9----------------------|--9-----10-----9-----5--5--|
---7----7--7--7--7--7--7--|-----7------7-----7-----3--|
--------------------------|---------------------------|

-------------------------|-------------------------|-------------------------|
-------------------------|-------------------------|-------------------------|
-------------------------|-------------------------|-------------------------|
----5--------5--------5--|----5--------5-----------|-------------------------|
----3--3--3--3--3--3--3--|----3--3--3--3--3--------|--4----------------------|
-------------------------|-------------------5--3--|--5----5--5--5--5--5--5--|

--------------------------|-------------------------|
--------------------------|-------------------------|
--------------------------|-------------------------|
--7-----9-----7-----5--7--|-------------5--4--2--4--|
-----0-----0-----0--------|----5--5--5-----------2--|
--------------------------|-------------------------|
Em C
--------------------------||---0----------------|--0----------------|
--------------------------||---0----------------|--1----------------|
-------------------------*||*--0----------------|--0----------------|
-------------5--4-----4--*||*--2----------------|--2----------------|
----2--2--2--------5------||---2----------------|--3----------------|
--------------------------||---0----------------|-------------------|
A D B
--0----------------|--2--------2---------||------------------------------|
--2----------------|--3--------4---------||------------------------------|
--2----------------|--2--------4--------*||------------------------------|
--2----------------|--0--------4--------*||--------9-------7-----9-------|
--0----------------|-----------2---------||--7--7--10--10--9--9--10--10--|
-------------------|---------------------||------------------------------|

--------------------------|--------------------------|
--------------------------|--------------------------|
--------------------------|--------2-----0-----2-----|
--------7-----5-----7-----|--------4--4--2--2--4--4--|
--5--5--9--9--7--7--9--9--|--2--2--------------------|
--------------------------|--------------------------|

------------------------------|-------------------------|-------------------|
------------------------------|-------------------------|-------------------|
------------------------------|-------------------------|-------------------|
--------9-------7-----9-------|-------------------------|--5----------------|
--7--7--10--10--9--9--10--10--|--7--7--10----9----10----|--5----------------|
------------------------------|-------------------------|--3----------------|

-------------------|----------------------|------------------------------|
-------------------|----------------------|------------------------------|
-------------------|--5----4----2---------|------------------------------|
--7----------------|--7----5----4----4----|--------9-------7-----9-------|
--5----------------|-----------------5----|--7--7--10--10--9--9--10--10--|
-------------------|----------------------|------------------------------|

--------------------------|--------------------------|
--------------------------|--------------------------|
--------------------------|--------2-----0-----2-----|
--------7-----5-----7-----|--------4--4--2--2--4--4--|
--5--5--9--9--7--7--9--9--|--2--2--------------------|
--------------------------|--------------------------|

------------------------------|------------------------------|
------------------------------|------------------------------|
------------------------------|------------------------------|
--------9-------7-----9-------|--------9-------7-----9-------|
--7--7--10--10--9--9--10--10--|--7--7--10--10--9--9--10--10--|
------------------------------|------------------------------|

-------------------|-------------------|----------------------|
-------------------|-------------------|----------------------|
-------------------|-------------------|--5----4----2---------|
--5----------------|--7----------------|--7----5----4----5----|
--5----------------|--5----------------|-----------------5----|
--3----------------|-------------------|----------------------|

----------------------------|----------------------------|
----------------------------|----------------------------|
----------------------------|----------------------------|
------------9---------------|----------------------------|
--10--7--7-----7--7--10--7--|--9--7--10--7--9--7--9--10--|
----------------------------|----------------------------|

---------------------------|---------------------------|
---------------------------|---------------------------|
---------------------------|---------------------------|
---------------------------|---------------------------|
--7--------10--------9-----|-----10--------7-----9-----|
-----8--8------8--8-----8--|--8------8--8-----8-----8--|

--------------------------|--------------------------|
--------------------------|--------------------------|
--------------------------|--------------------------|
-----------5--------------|--------------------------|
--7-----------------7-----|--9-----7-----9-----7--9--|
-----5--5-----5--5-----5--|-----5-----5-----5--------|

--------------------------|--------------------------|
--------------------------|--------------------------|
--------------------2-----|--4--------2--------------|
--4--------5--------------|--------------------5-----|
-----2--2-----2--2-----2--|-----2--2-----2--2-----2--|
--------------------------|--------------------------|

-----------7--------------|--------------------------|
--8--5--5-----5--5--8--5--|--7--5--8--5--7--5--7--8--|
--------------------------|--------------------------|
--------------------------|--------------------------|
--------------------------|--------------------------|
--------------------------|--------------------------|

--------------------------|--------------------------|
--5--------8--------7-----|-----8--------5-----7-----|
-----5--5-----5--5-----5--|--5-----5--5-----5-----5--|
--------------------------|--------------------------|
--------------------------|--------------------------|
--------------------------|--------------------------|

-----------3--------------|--2-----------2-----------|
--5-----------------5-----|--------5-----------5--7--|
-----2--2-----2--2-----2--|-----2-----2-----2--------|
--------------------------|--------------------------|
--------------------------|--------------------------|
--------------------------|--------------------------|

-----------3--------5-----|--7--------5--------3-----||--------------------|
--7-----------------------|--------------------------||--------------------|
-----4--4-----4--4-----4--|-----4--4-----4--4-----4--||*-------------------|
--------------------------|--------------------------||*--2----------------|
--------------------------|--------------------------||---2----------------|
--------------------------|--------------------------||---0----------------|

---------------------|-------------------|---------------------|
---------------------|-------------------|---------------------|
----------------0----|--7----------------|----------------4----|
---------2-----------|--7----------------|---------4-----------|
--3------------------|--5----------------|--2------------------|
---------------------|-------------------|---------------------|

-------------------|---------------------|-------------------|
-------------------|----------------5----|-------------------|
--5----------------|---------3-----------|-------------------|
--5----------------|--2------------------|--4----------------|
--3----------------|---------------------|--4----------------|
-------------------|---------------------|--2----------------|

----------------------||--------------------------|---------------------------|
----------------------||--------------------------|---------------------------|
----------------4----*||*-------------------------|---------------------------|
---------4-----------*||*--9----------------------|--9-----10-----9-----5--5--|
--2-------------------||---7----7--7--7--7--7--7--|-----7------7-----7-----3--|
----------------------||--------------------------|---------------------------|

-------------------------|-------------------------|-------------------------|
-------------------------|-------------------------|-------------------------|
-------------------------|-------------------------|-------------------------|
----5--------5--------5--|----5--------5-----------|-------------------------|
----3--3--3--3--3--3--3--|----3--3--3--3--3--------|--4----------------------|
-------------------------|-------------------5--3--|--5----5--5--5--5--5--5--|

--------------------------|-------------------------|
--------------------------|-------------------------|
--------------------------|-------------------------|
--7-----9-----7-----5--7--|-------------5--4--2--4--|
-----0-----0-----0--------|----5--5--5-----------2--|
--------------------------|-------------------------|
Em C
--------------------------||---0----------------|--0----------------|
--------------------------||---0----------------|--1----------------|
-------------------------*||*--0----------------|--0----------------|
-------------5--4-----4--*||*--2----------------|--2----------------|
----2--2--2--------5------||---2----------------|--3----------------|
--------------------------||---0----------------|-------------------|
A D B
--0----------------|--2--------2---------||------------------------------|
--2----------------|--3--------4---------||------------------------------|

--2----------------|--2--------4--------*||------------------------------|
--2----------------|--0--------4--------*||--------9-------7-----9-------|
--0----------------|-----------2---------||--7--7--10--10--9--9--10--10--|
-------------------|---------------------||------------------------------|

--------------------------|--------------------------|
--------------------------|--------------------------|
--------------------------|--------2-----0-----2-----|
--------7-----5-----7-----|--------4--4--2--2--4--4--|
--5--5--9--9--7--7--9--9--|--2--2--------------------|
--------------------------|--------------------------|

------------------------------|-------------------------|-------------------|
------------------------------|-------------------------|-------------------|
------------------------------|-------------------------|-------------------|
--------9-------7-----9-------|-------------------------|--5----------------|
--7--7--10--10--9--9--10--10--|--7--7--10----9----10----|--5----------------|
------------------------------|-------------------------|--3----------------|

-------------------|----------------------|------------------------------|
-------------------|----------------------|------------------------------|
-------------------|--5----4----2---------|------------------------------|
--7----------------|--7----5----4----4----|--------9-------7-----9-------|
--5----------------|-----------------5----|--7--7--10--10--9--9--10--10--|
-------------------|----------------------|------------------------------|

--------------------------|--------------------------|
--------------------------|--------------------------|
--------------------------|--------2-----0-----2-----|
--------7-----5-----7-----|--------4--4--2--2--4--4--|
--5--5--9--9--7--7--9--9--|--2--2--------------------|
--------------------------|--------------------------|

------------------------------|------------------------------|
------------------------------|------------------------------|
------------------------------|------------------------------|
--------9-------7-----9-------|--------9-------7-----9-------|
--7--7--10--10--9--9--10--10--|--7--7--10--10--9--9--10--10--|
------------------------------|------------------------------|

-------------------|-------------------|----------------------|
-------------------|-------------------|----------------------|
-------------------|-------------------|--5----4----2---------|
--5----------------|--7----------------|--7----5----4----5----|
--5----------------|--5----------------|-----------------5----|
--3----------------|-------------------|----------------------|

----------------------------|----------------------------|
----------------------------|----------------------------|
----------------------------|----------------------------|
------------9---------------|----------------------------|
--10--7--7-----7--7--10--7--|--9--7--10--7--9--7--9--10--|
----------------------------|----------------------------|

---------------------------|---------------------------|
---------------------------|---------------------------|
---------------------------|---------------------------|
---------------------------|---------------------------|
--7--------10--------9-----|-----10--------7-----9-----|
-----8--8------8--8-----8--|--8------8--8-----8-----8--|

--------------------------|--------------------------|
--------------------------|--------------------------|
--------------------------|--------------------------|
-----------5--------------|--------------------------|
--7-----------------7-----|--9-----7-----9-----7--9--|
-----5--5-----5--5-----5--|-----5-----5-----5--------|

--------------------------|--------------------------|
--------------------------|--------------------------|
--------------------2-----|--4--------2--------------|
--4--------5--------------|--------------------5-----|
-----2--2-----2--2-----2--|-----2--2-----2--2-----2--|
--------------------------|--------------------------|

-----------7--------------|--------------------------|
--8--5--5-----5--5--8--5--|--7--5--8--5--7--5--7--8--|
--------------------------|--------------------------|
--------------------------|--------------------------|
--------------------------|--------------------------|
--------------------------|--------------------------|

--------------------------|--------------------------|
--5--------8--------7-----|-----8--------5-----7-----|
-----5--5-----5--5-----5--|--5-----5--5-----5-----5--|
--------------------------|--------------------------|
--------------------------|--------------------------|
--------------------------|--------------------------|

-----------3--------------|--2-----------2-----------|
--5-----------------5-----|--------5-----------5--7--|
-----2--2-----2--2-----2--|-----2-----2-----2--------|
--------------------------|--------------------------|
--------------------------|--------------------------|
--------------------------|--------------------------|

-----------3--------5-----|--7--------5--------3-----||--------------------|
--7-----------------------|--------------------------||--------------------|
-----4--4-----4--4-----4--|-----4--4-----4--4-----4--||*-------------------|
--------------------------|--------------------------||*--2----------------|
--------------------------|--------------------------||---2----------------|
--------------------------|--------------------------||---0----------------|

---------------------|-------------------|---------------------|
---------------------|-------------------|---------------------|
----------------0----|--7----------------|----------------4----|
---------2-----------|--7----------------|---------4-----------|
--3------------------|--5----------------|--2------------------|
---------------------|-------------------|---------------------|

-------------------|---------------------|-------------------|
-------------------|----------------5----|-------------------|
--5----------------|---------3-----------|-------------------|
--5----------------|--2------------------|--4----------------|
--3----------------|---------------------|--4----------------|
-------------------|---------------------|--2----------------|

----------------------||---------------------------|-------------------------|
----------------------||---------------------------|-------------------------|
----------------4----*||*--------------------------|-------------------------|
---------4-----------*||*--------7-----5--7--------|--7--5-------------------|
--2-------------------||---0--0-----0--------0--0--|--------7--6-------------|
----------------------||---------------------------|----------------5--7--8--|

--------------------------|-----------------------||---------------------------|
--------------------------|-----------------------||---------------------------|
--------------------------|----------------------*||*--------------------------|
--------7-----5--7--------|--7--5-----5----------*||*--------------------------|
--0--0-----0--------0--0--|--------7--5-----------||---------7-----5--7--------|
--------------------------|-----------3-----------||---0--0-----0--------0--0--|
4x
-------------------------|--------------------------|-----------------------||
-------------------------|--------------------------|-----------------------||
-------------------------|--------------------------|----------------------*||
-------------------------|--------------------------|-----------3----------*||
--7--5-------------------|--------7-----5--7--------|--7--5-----3-----------||
--------7--6----0--2--3--|--0--0-----0--------0--0--|--------7--1-----------||
16x
---------------------------|---------------------------||
---------------------------|---------------------------||
*--------------------------|--------------------------*||
*--5--------4--------5-----|--2--------4--------5-----*||
------2--2-----2--2-----2--|-----2--2-----2--2-----2---||
---------------------------|---------------------------||

--------------------------|-----------------------||--------------------------|
--------------------------|-----------------------||--------------------------|
--------------------------|-----------------------||*-------------------------|
--4-----------------------|--------------4--------||*--9----------------------|
--2--2--2--2--2--2--2--2--|--2--2--2--2--2--------||---7----7--7--7--7--7--7--|
--------------------------|-----------------------||--------------------------|

---------------------------|-------------------------|-------------------------|
---------------------------|-------------------------|-------------------------|
---------------------------|-------------------------|-------------------------|
--9-----10-----9-----5--5--|----5--------5--------5--|----5--------5-----------|
-----7------7-----7-----3--|----3--3--3--3--3--3--3--|----3--3--3--3--3--------|
---------------------------|-------------------------|-------------------5--3--|

-------------------------|--------------------------|-------------------------|
-------------------------|--------------------------|-------------------------|
-------------------------|--------------------------|-------------------------|
-------------------------|--7-----9-----7-----5--7--|-------------5--4--2--4--|
--4----------------------|-----0-----0-----0--------|----5--5--5-----------2--|
--5----5--5--5--5--5--5--|--------------------------|-------------------------|
Em C
--------------------------||---0----------------|--0----------------|
--------------------------||---0----------------|--1----------------|
-------------------------*||*--0----------------|--0----------------|
-------------5--4-----4--*||*--2----------------|--2----------------|
----2--2--2--------5------||---2----------------|--3----------------|
--------------------------||---0----------------|-------------------|
A D B
--0----------------|--2--------2---------||------------------------------|
--2----------------|--3--------4---------||------------------------------|
--2----------------|--2--------4--------*||------------------------------|
--2----------------|--0--------4--------*||--------9-------7-----9-------|
--0----------------|-----------2---------||--7--7--10--10--9--9--10--10--|
-------------------|---------------------||------------------------------|

--------------------------|--------------------------|
--------------------------|--------------------------|
--------------------------|--------2-----0-----2-----|
--------7-----5-----7-----|--------4--4--2--2--4--4--|
--5--5--9--9--7--7--9--9--|--2--2--------------------|
--------------------------|--------------------------|

------------------------------|-------------------------|-------------------|
------------------------------|-------------------------|-------------------|
------------------------------|-------------------------|-------------------|
--------9-------7-----9-------|-------------------------|--5----------------|
--7--7--10--10--9--9--10--10--|--7--7--10----9----10----|--5----------------|
------------------------------|-------------------------|--3----------------|

-------------------|----------------------|------------------------------|
-------------------|----------------------|------------------------------|
-------------------|--5----4----2---------|------------------------------|
--7----------------|--7----5----4----4----|--------9-------7-----9-------|
--5----------------|-----------------5----|--7--7--10--10--9--9--10--10--|
-------------------|----------------------|------------------------------|

--------------------------|--------------------------|
--------------------------|--------------------------|
--------------------------|--------2-----0-----2-----|
--------7-----5-----7-----|--------4--4--2--2--4--4--|
--5--5--9--9--7--7--9--9--|--2--2--------------------|
--------------------------|--------------------------|

------------------------------|------------------------------|
------------------------------|------------------------------|
------------------------------|------------------------------|
--------9-------7-----9-------|--------9-------7-----9-------|
--7--7--10--10--9--9--10--10--|--7--7--10--10--9--9--10--10--|
------------------------------|------------------------------|

-------------------|-------------------|----------------------|
-------------------|-------------------|----------------------|
-------------------|-------------------|--5----4----2---------|
--5----------------|--7----------------|--7----5----4----5----|
--5----------------|--5----------------|-----------------5----|
--3----------------|-------------------|----------------------|

----------------------------|----------------------------|
----------------------------|----------------------------|
----------------------------|----------------------------|
------------9---------------|----------------------------|
--10--7--7-----7--7--10--7--|--9--7--10--7--9--7--9--10--|
----------------------------|----------------------------|

---------------------------|---------------------------|
---------------------------|---------------------------|
---------------------------|---------------------------|
---------------------------|---------------------------|
--7--------10--------9-----|-----10--------7-----9-----|
-----8--8------8--8-----8--|--8------8--8-----8-----8--|

--------------------------|--------------------------|
--------------------------|--------------------------|
--------------------------|--------------------------|
-----------5--------------|--------------------------|
--7-----------------7-----|--9-----7-----9-----7--9--|
-----5--5-----5--5-----5--|-----5-----5-----5--------|

--------------------------|--------------------------|
--------------------------|--------------------------|
--------------------2-----|--4--------2--------------|
--4--------5--------------|--------------------5-----|
-----2--2-----2--2-----2--|-----2--2-----2--2-----2--|
--------------------------|--------------------------|

-----------7--------------|--------------------------|
--8--5--5-----5--5--8--5--|--7--5--8--5--7--5--7--8--|
--------------------------|--------------------------|
--------------------------|--------------------------|
--------------------------|--------------------------|
--------------------------|--------------------------|

--------------------------|--------------------------|
--5--------8--------7-----|-----8--------5-----7-----|
-----5--5-----5--5-----5--|--5-----5--5-----5-----5--|
--------------------------|--------------------------|
--------------------------|--------------------------|
--------------------------|--------------------------|

-----------3--------------|--2-----------2-----------|
--5-----------------5-----|--------5-----------5--7--|
-----2--2-----2--2-----2--|-----2-----2-----2--------|
--------------------------|--------------------------|
--------------------------|--------------------------|
--------------------------|--------------------------|

-----------3--------5-----|--7--------5--------3-----||--------------------|
--7-----------------------|--------------------------||--------------------|
-----4--4-----4--4-----4--|-----4--4-----4--4-----4--||*-------------------|
--------------------------|--------------------------||*--2----------------|
--------------------------|--------------------------||---2----------------|
--------------------------|--------------------------||---0----------------|

---------------------|-------------------|---------------------|
---------------------|-------------------|---------------------|
----------------0----|--7----------------|----------------4----|
---------2-----------|--7----------------|---------4-----------|
--3------------------|--5----------------|--2------------------|
---------------------|-------------------|---------------------|

-------------------|---------------------|-------------------|
-------------------|----------------5----|-------------------|
--5----------------|---------3-----------|-------------------|
--5----------------|--2------------------|--4----------------|
--3----------------|---------------------|--4----------------|
-------------------|---------------------|--2----------------|

----------------------||--------------------------|-------------------------|
----------------------||--------------------------|-------------------------|
----------------4----*||--------------------------|-------------------------|
---------4-----------*||--------7-----5--7--------|--7--5-------------------|
--2-------------------||--0--0-----0--------0--0--|--------7--6-------------|
----------------------||--------------------------|----------------5--7--8--|

-------------------||
-------------------||
-------------------||
--7----------------||
--7----------------||
--5----------------||