( )

A                                                   

F# Hm
Haa c e ocoa aaa .
F# Hm
He acya a ece.
Em Hm
, apo, ye a
F# Hm
oa ao ec.
C Hm
Oa pe yy ce,
F# Hm
Oa peo e cop aa.
Em Hm
ce pa opoa
F#7
Ha o oa.
aax eoo cepa

Cpa oe oo cepe,
a oa opoa cpea
ayac a ecoo e.
Cpe co ox aox
eca ax pye
Oa eae , o ceec,
capac e ya o e.
D
o cy paee,
G Em
o pa o.
Em F#
, a , cac a pae e
Hm
acae epo.
o pya Windows,
o o eo,
Ha pa e Beatles,
cape pa o.
Ha aep eax aax
c po o eey capoc.
Ha e pyac ao,
Hac cax o e ocaoc.
A o cy paee,
o pa o.
, a , cac a pae e
acae
epo.
solo
2--7-5---8-|-7-5-----|----8----------|
3------7---|-----7-6-|-------(4-6)-4-|
4----------|---------|-5-------------|
2----------|--------7-5-|----------8)-|
3-4-6-4-6--|(6-6)-7-----|-7-6-4-(4----|
4----------|------------|-------------|
----->
2--7-5---8-|---------|----8----------|
3------7---|-----7-6-|-------(4-6)-4-|
4----------|---------|-5-------------|
------->
2----------|--------7-5-|-----------|
3-4-6-4-6--|------7-----|-7-6-4-----|
4----------|------------|-----------|

O Ayeo o paco
a ep aeo.
ee ococe a
o cepe ea epo.
He a oxoeo coa
e a pyx aopo,
epe py pya coa
ecoeoc epexoo.
o cy paee,
o pa o.
, a , cac a pae e,
acae
epo.
o cy paee,
o pa o.
, a , cac a pae e
acae epo.