( )

A                                                   

cyee:

Am E E7 Am F Dm/B E Am E

-|--------|--------|--------|--------|--------|--------|0-------|--------|

-|--------|--------|----3-0-|--------|--------|--------|0-------|--------|

-|----2---|----1---|--------|----2-0-|----2---|--2-----|1--01-1-|2---1---|

-|------2-|------2-|--------|--------|------3-|----0---|2-------|--2---2-|

-|0-------|2-------|--------|0-------|--------|2-----2-|2-------|--------|

-|--------|--------|0-------|--------|1-------|--------|0-------|--------|

a o ea, oopoe paec a cepee. oo pac cpo ee

epeop:

E Am E E7 Am F Dm/B E Am E

---|--------|--------|--------|--------|--------|--------|--------|--------|

---|--------|--------|--------|--------|--------|--------|--------|--------|

---|--------|--------|--------|--------|--------|--------|--------|--------|

-20|--------|--------|0-------|--------|--------|--------|--------|------20|

---|3-----2-|2-------|------3-|3-----0-|------2-|2-------|------0-|0-------|

---|--------|--------|--------|-------3|1-------|--------|4-------|--------|

Am E E7 Am

ece ce eoo opo

Am E E7 Am

c coa, e po

Am E E7 Am (bass A G)

oyx yco ee a

F Dm/B E Am E

xoy oca ea

Am E E7 Am (bass A G) F Dm/B E Am E

pe: OOOOOOOooooooAAAAAAAaaaaaaayy

oey oocy e

apa oyepy e

ap epe epe

yc coo e oy o ce

pe

o ooo coae apay

y a co cea poa

Ce e op ao

a cpy, ya ee

pe

Coa ep ye