( )

A                                                   


G Cm
e|--3-----3--|
B|--3-----4--|
G|--4-----5--|
D|--5-----5--|
A|--5-----3--|
E|--3-----3--|

Maa, aa, Xya

Intro:
G Cm
e|------------------------||------------------------|
B|------------------------||------------------------|
G|---7-4-4----------------||---8-5-5----------------|
D|-5-------5-5--5-6-5-6-5-||-5-------5-5--5-6-5-6-5-|
A|------------------------||------------------------|
E|------------------------||------------------------|
G Cm
e|------------------------||------------------------|
B|---6--------------------||------------------------|
G|-----7-7----------------||-5-5-5------------------|
D|-5-------5-5--5-6-5-6-5-||------------------------|
A|------------------------||------------------------|
E|------------------------||------------------------|
G
xoe ece(a!), x ec y e!(aa!)
Cm
epeopy ooo coo!(aa!)
G
cap eac(O!), yco ca...(aa!)
Cm
A ac ye a apa coa! ay!
Solo
e|------------------------||------------------------|
B|------------------------||------------------------|
G|---7-4-4----------------||---7-4-4----------------|
D|-5-------5-5--5-6-5-6-5-||-5-------5-5--5-6-5-6-5-|
A|------------------------||------------------------|
E|------------------------||------------------------|
e|------------------------||------------------------|
B|---6--------------------||------------------------|
G|-----7-7----------------||-5-5-5------------------|
D|-5-------5-5--5-6-5-6-5-||------------------------|
A|------------------------||------------------------|
E|------------------------||------------------------|
Magic people! ...Voodoo people!

Intro:
G Cm
e|------------------------||------------------------|
B|------------------------||------------------------|
G|---7-4-4----------------||---8-5-5----------------|
D|-5-------5-5--5-6-5-6-5-||-5-------5-5--5-6-5-6-5-|
A|------------------------||------------------------|
E|------------------------||------------------------|
G Cm
e|------------------------||------------------------|
B|---6--------------------||------------------------|
G|-----7-7----------------||-5-5-5------------------|
D|-5-------5-5--5-6-5-6-5-||------------------------|
A|------------------------||------------------------|
E|------------------------||------------------------|

xoe ece(a!), x ec y e!(aa!)
yc oy a oce c!
yc ye ao e co o \"a\"! (E-e!)
A ac ye a apa coa!(aa! aa! aa!)

Solo

Magic people! ...Voodoo people!
Intro
o(oo!), a pea pa(oo!).
e oaae py pya - ae!(oo!)
yca ae ye oo ... (aa! aa! aa!)
aa cay! aa, oc!(aa! aa! aa!)
Solo.

...Magic people! ...Voodoo people!
Intro.
...Magic people! ...Voodoo people!
Intro.
Bass Outro:
G|-6-5-3-------------|
D|---------6-5-3--2~-|
A|-------------------|
E|-------------------|
Magic people! Voodoo people!