( )

A                                                   

Intro:

e ---7-7-7/8-7--7-5-5---5-5-7/8-7--5-------
B -----------------------------------8-8---

e ---7-7-7/8-7--8-7-5---5-5-7/8-7--5-------
B -----------------------------------8-8---

distorted:
G5 Bb5

G D D7 Em
a-a ea o e,
G D D7 Em
Coepa a e a coo ace.
G D D7 Em
x pe aa cee acy,
G D D7 Em
O py pyy face, ya Aee
C G
y paa!

a-a ce pya ppa -
e eca, poe a.
x epx ooax eco oa ferrum,
y aoo c a xoce eepa,

C G D G D7 Em
e paa, oop ye e pe,
G Dm C E C D7 Em C
ooy o pop a o
H Em
a-a...

pop: oopec intro, oo:

e ---10-10-10-7--7-5-5----5-5-7/8-7--5-------
B -------------------------------------8-8---

e ---7-7-7/8-7--7-5-5---5-5-7/8-7--5-------------
B -----------------------------------8-8---6-8---

Hapya e, xoy cpoc e:
Co , o py, ea cep epe c?
Ce Cpyc aa, aea Coe.
p ax pacaax e ea oe

a paa, oop ye e pe,
ooy o pop a o
a-a...