( )

A                                                   

Intro:
e|-----------------|----------------------------|
B|--10--8----------|--10--8---------------------|
G|---------8h9--7--|---------9--------------10--|
D|-----------------|------(harm)12---10-11------|

N.C.
Oa e e cxo, oa e o,
Oa cae, o ao oe ao.
Oa aapae a, oa a oc,
Oa eae c o, o e e a.
Oa eae o ee, oa eo e,
a a opoc y e ec oe.
Oa cae, o e e peo yp,
o-o o cx op e e oe poc.

Chorus:
e|----------5-5-------------5-5-5--|
B|--10--8---5-5----10--8----5-5-5--|
G|----------5-5----------9--5-5-5--|
D|---------------------------------|
Oa eae o ee, oa eo e.
Oa oa y e

N.C.
Oa e pye oopx a
Oa poec apaax oa ye c
Oa ea oop o o cyx
Oa eae coo oe aex yx
C e e oop e cope e aa
o cepa acca xoooo a
E pxoc aco oa oo
o oa o cx op oey-o co o

Chorus:
e|----------5-5-------------5-5-5--|
B|--10--8---5-5----10--8----5-5-5--|
G|----------5-5----------9--5-5-5--|
D|---------------------------------|
Oa eae o ee, oa eo e.
Oa oa y e