( )

A                                                   

oe epe - axo

Chords by Unknown

Dm Gm

ocpo co o a opoe y,

A7 Dm

y e aco, e ae e .

Dm Gm

Cop o oa poooe c,

A7 Dm

Coopoe e oo o .

C F B

o ypa, oa y o

Gm A7

Cy o cey oa o,

Dm

ocoa, o ce o - o.

Dm Dm

Ho.. Ho axo...

Dm

Ho axo -

o o a yo

Gm A7

oo .

Dm

ee o y,

, ec ye e o,

Gm C

Haec e.

F

Ho aea -

ye a

B

poececo e.

Dm

oe ay,

oa ye pa -

A7

a y ac a ee.

;pop 1

;(eoc e pocae)

Dm Gm A7 Dm Gm A7 \

1]--------------------------------------+

2]-6--8-8-6-5h6p5----3-5-6--8-8-6-5h6p5-+

/

Dm Gm A7

1]------------------------|

2]--3-5-6--8-8-6-5h6p5----|

B (Gm) A7 \

1]-5/6---5-8--6--5---------| ++

2]------------------8--3-5-| ++

/

Ce oe oy cey,

oey a xoo oppe pye.

opy aeap - yy , a xoy,

Coce e pac ayc e.

o paoo, paa c e,

oe e o o, o ye oa.

Ho coa, o ce o pe,

Ho axo...

Ho axo -

o o a yo

oo .

c oo oc

a y coo

oe e.

Ho aea -

e, e pa,

oa ye.

oe ay,

oa ye pa-

a y ac a ee.

(pop 1)

Ho axo -

o o a yo

oo .

ee o y,

, ec ye e o,

Haec e.

Ho aea -

ye a

poececo e.

oe ay,

oa ye pa -

a y ac a ee.

;pop 2

Dm Gm A7 Dm Gm A7 Dm Gm A7

1]---------------------------------------------------------------

2]-6--8-8-6-5h6p5----3-5-6--8-8-6-5h6p5----3-5-6--8-8-6-5h6p5----

B (Gm) A7

1]-5/6---5-8--6--5---------|

2]------------------8--3-5-|

Dm Gm A7 Dm Gm A7

1]---------------------------------------

2]-6--8-8-6-5h6p5----3-5-6--8-8-6-5h6p5--

Dm Gm A7

1]-----------------------------

2]--3-5-6--8-8-6-8--6-5---2-3--

(Gm) A7 Dm ; .. Paepeec :)

1]-----5-------------------|

2]-5h6----6--5--6p5-5--3---|

1]-------10-8-------------------------------------

2]-------------10-8--6-8--6----7/8-8--6---6-------

3]-5/7-7--------------------7----------m7--m7-5-7-

1]---------------------------

2]--6-----10-8-6-6---6-------

3]------7---------m7--m7-5-7-

1]--13p10--10p8-8p5--5---------------------8--6-5-----------------

2]----------------------8-6-8--6-8--6-8--6---------8-6-5-----5----

3]-------------------------------------------------------7-6---7--

; o oe oo cpa eo poaooe, a

1]------------------------------------

2]---6----8---------6-----------------

3]-7----7----7-5--7----7-5-7----------

;m7 - ayea eo pyo oa. (e oa o oa)