( )

A                                                   

oe epe - He

Chords by Vitaly Ovtchinnikov 2:5020/378.25, ov@aport.ru

po: (2 paa)

Em Em* Am Am6 Am Am6 H7 H7/5+ H7 Em Em* H7

e|--0--3----0--2----0--2---2----3-----2--0----3---2------|

B|--0--0----1--1----1--1---0----0-----0--0----0---0------|

G|--0--0----2--2----2--2---2----2-----2--0----0---2------|

D|--2--2----2--2----2--2---1----1-----1--2----2---1------|

A|--2--2----0--0----0--0---2----2-----2--2----2---2------|

E|--0--0---------------------------------0----0----------|

y oaao a o epec ao ope o paec

epe oopee peoeyec xo pa ocya opa :)

epe p cpo pea pac coee, e ec acao

Em(VII)

aea a oo

Am(V)

Co py oe ec

aoa x eeo

D9 Em(VII)

o ce ec ece

paoa cpae ca

Ha ecpao eao ae

yeecy o o pa

He aea ae o

C G

o paoa poca cya c ca

C G

yxoy e eca, e eco co ycoa

C G

o appy poc - opya oc

C H7

o paoa yca a p, oopo e cca

[a po, o o pa]

coey paayp

coe e oe-o oeco e

oa, o a "pye"

oo e , poe He

He oxoyc o cax e popoec

A - o xoe, o ae e

cex aox e ooec

pa - e oaee

o paoa poca cya c ca

yxoy e eca, e eco co ycoa

o appy poc - opya oc

o paoa yca a , oopo e cca

[a po] o o:

oopo e cca, ec oo o, o o

aea a oo

Co py cape ec

aoa x eeo

o a ec ece

cex aox e ooec

pa y, o e e

coa py e a, ey po

o oo e , ae He

o paoa poca cya c ca

yxoy e eca, e e aca ca

o appy poc - oa oc

o paoa yca a , oopo e cca

[ coa a po]

D9 y epec a a-o o,

payeec, o ye ye oa pyo aop :)

e|-5--------|

B|-5--------|

G|-5--------|

D|-4--------|

A|-5--------|

E|-x--------|