( )

A                                                   

pop:

Em D C D

bass line:

D -----------2-0-----0---0-2---------

A ---------------------3-------2------

E ---0-----0---------------------0---

D ------------------0---0-2-------

A ---0----0-2-3---3-----------2---

E ------------------------------0-

Em D Em

o ep oco, e ceac ae ,

A7 C D Em

e p cee axy o cpaxa oc,

a cpec ae-oe eo-xpae,

o eepo oce cya opa -o oc.

oca a o ay-o yy - pyo,

Cyy aec ooe opcoo aapa,

eo ay, e ae paa, pya,

o o "Acoa" - pa poea apa.

pe:

Am Em

oa pa y, oa pa a,

C D Em

oe o , oa oe po.

Am Em

epaa eo a ceec e,

Em

o ca o cee, ca o cee,

e po, e po, e po, e-a...

oppe cepex aoc, a aepe o,

a pa, oac a coceo e,

o eo oa popa poa, oa,

A ae xp ocac p px e.

aycoo oe ex popaex ecax,

Ce yeoc ep a aape a,

ca o poea a yx oocax

e yox epeax e ca.

pe.

A5 E5

e po e, eo, e po e, a,

o po ea a ocpoe a

e pea aeoo xaa,

a a Ea cae Aaa,

o, o opc , , ae, o o!

solo:

G ------------7----------------------------7-----------------

D -----9--7-9---9-7-9---------------9--7-9---9-7-9-----------

A ---7----------------7-10---7----7----------------7-10--9---

E ------------------------10---------------------------------

o a o a x eccepx ox?

o o o o pacaex pee yax?

o oy poec cox ax cyx ooox,

oaax x pox x acex ayax?

xoa ce po axe ooo,

opoocx , a, cep - o cep ao y.

yo e aa "yoo",

"ae oe?" yxc e epo y.

Oo oo ec, oo oo a,

O o pa, py o o,

epaa eo a epee e,

o ca o cee, ca o cee,

e po, e po, e po,

e po e, ee, e po, ce aoa,

e ea o xpyc Pyoa,

eoo ea, cyoo oa,

oopaea Aaa-aoa,

, o, e , ae, o o!