( )

A                                                   

oe epe - Carmen Horrendum

Cocaee oopee oop - p eepo (2:5030/654, yole@nnz.ru)

ocee ee - 16.02.2000.

oop coo - p eepo (2:5030/654, yole@nnz.ru)

C#Maj7 F#m7 D(II) GMaj7 F#m/E D#m7-5 DMaj7

e ---4------2-----2------2------2------2-------2---

B ---6------2-----3------3------2------2-------2---

G ---5------2-----2------4------2------2-------2---

D ---6------2-----4------5------4------1-------0---

A ---4------4-----5-------------4------------------

E ----------2-----2-------------0------------------

Intro:

Hm F#m7

e ----------2-1-2--4-----4/5-5--4-5--2--

B ---0-2-3-------------2----------------

Hm F#m7

e ------------2-1-2--4-----4/5-5--4-5-4--2--

B ---2-0-2-3-------------2------------------

Hm F#m7

e ------------2-1-2--4-----4/5-5--4-5--5---

B ---2-0-2-3-------------2-----------------

D Hm7 GMaj7 C#7

e -----1-4-5---4-2-1-2---1---------------------

B ---3---------------------3-2-3----3-2-0-2^---

Hm C#maj7 F#m7

poa-pap pacep ce a paax,

ac o ooo o oce oea,

c cyo eep a c pao a oax,

D(II) Hm7 Gmaj7 C#7

e opo o e, a e a e oe.

aca oe oo ya eea,

e e ao e oxo a

eye o , cop o

a ce aa coa oceeo e a.

D(II) C#(I)

o cxo, o-xo, c ya,

D C#

Co, o-xo, c ya,

F#m F#m/E D#m7-5

ce, ce oa,

D C#

o x payy po ea.

D C#

pao pyoep

D C#

e ypae e cep,

F#m F#m/E D#m7-5

e yo ,

Dmaj7 C#7

A cep - o ee oa?

poa-pap paceca ce o aaa,

e pope pyx pao o oyo cepe,

e a oc coo pya oa,

A pa, a pya epyy e oep.

c ypa oo ypa peye eca,

o ec e o e yca a

oae pa, o oce

ac opaa pee ca, pee pa a aa.

o ea, Po y, x c,

poca, Po y, x c,

Cpae opee,

oa x cx eca.

pe cep o oc,

ece oa c,

A oce e o o,

A oa - o ee oa?

ea-pap pae ce o eoa,

yc co opa o epy ca o apey,

oe, oe oa a pao y ea

ee ape o xop cpe e pooe carmen horrendum.

oe e co ee o ca p ye,

e pao o cye, e opaac, e

ycac aap, cex c a yepp

Xao , o e y, o a oe a a oe.

o , o Xya, coe,

a, o Xya, coe,

e oo oc

oce, ocep o.

Co cepe poa oe,

pe cep o ee,

A co , e -

oe a-y oo.

[1995]