( )

A                                                   

Intro:

Riff1 (2 paa):

E|------------0----------------------------------

H|----------0---0----3---------------------------

G|----------------------0--------0---------4-----

D|------2---------------------0----0----4----4---

A|----------------3-------3-----------2----------

E|--------------------------3--------------------

paa, o paec a!

coo(coye slide):

E|------------------------------------------

H|------------------------------------------

G|------------------------------------------

D|--2-2-2-4-2-0-2-2-4-2-0-2-2-4-2-0-2-0---0-

A|--------------------------------------0---

E|------------------------------------------