( )

A                                                   

a ayce: ao 5 a. Aop ooceo eo.

Intro 1:

*Ayca (co ao a 5 ay, o aca a oope aac ec eo e o)

e |---------------------------|

B |6---6-5---5----------------|

G |------------7---7-5---5-7--| ce o 2 paa

D |--7-----7-----7-----7---7--|

A |------------------------5--|

E |---------------------------|

Intro 2: ao 5 a. Aop ooceo ao.

o aop p epeocoo(eco e ao)

Dm G

e |-------0-----------0-----------0-----------0-----|

B |---6-----6-----6-----6-----6-----6-----6-----6---|

G |-7---7-------7---7-------7---7-------7---7-------| 2 paa

D |-------------------------------------------------|

A |-------------------------------------------------|

E |-------------------------------------------------|

Am G

aep poeyc poeyco ape

C Am

epeya exa pooa o aape

Dm G

ao copo epocee

Dm G

oa ea ox e

ae oe ce eoo apoa

ceo-cepx opax cea eoa

oep cey, o ey ex ooce

oa ea ox e

C Am

pa, axac o cac

C Am

coy a cao a a aco

Dm G + p*

o xoec ac c ao ceyo cpe

Dm G + p*

ea, ea, ea ox e

P* (epeoc)

e |-------------------|

B |-5-6--8--10--11~--|

G |-------------------|

:

C Am

ya-a

C Am

ya-a

Dm G

ya-aaaaaa-a-a-a

ya epae Pe

o cep - o o, o ae c py

o a ye py py oeco

C, a yxe aep cpe aco

o eo-eo, opyc aye

epe pe oc oe

Ey poeyc e aapx oe

oa ea ox e

pa, axac o cac

coy a cao a a aco

o xoec ac c ao ceyo cpe

ea, ea, ea ox e

a pac ea ox e

+CA (2 paa oopec a e caa, oce epoo pea)