( )

A                                                   

Cx ya: A. ace

intro: E Esus4\\D E Esus4\\D

ye1:

E Esus4\\D E Esus4\\D

ya ep y ooea e

eo a a opo acae

ceo

pe e caoeo epe

apoxoo o e

apooo o pa po

o o ye ao e cao a

e

ao e cao a e

ao e cao a e

ao e cao a e...

E Esus4\\D

aaaaa aaaaaaa x4

G Dm

aaaaa aaaaaaa x3

E Esus4\\D

aaaaa aaaaaaa x2

ye2:

Am Dm Am

aaox cce

epepeax cpy

pacpeoex ye

ooea e

oe e a e

yc ox oeye

Dm Am Dm

a a aaaaa aa xn Dm Am

tab1: paec aae 1 yee

E Esus4\\D E Esus4\\D

1|---0------------------0-----------0-----

2|---0---------3--------0---------3---3---

3|---1-------2-----2----1-------2-------2- aee o e yxe

4|---2-----2------------2-----2-----------

5|---2---2--------------2---2-------------

6|---0------------------0-----------------

tab2: paec o 2 yee

Am Dm

1|--------------------------------

2|---------1--------------3-------

3|---------------------2-----2----

4|------0--------0--3-------------

5|---0----------------------------

6|--------------------------------

p.: Dsus4\\D(022230)