( )

A                                                   

e|0-0-2-0-3-3-3-3-3-3-3-3-0-0-|

B|0-0-0-0-0-0-0-0-0-0-0-0-0-0-|

G|----------------------------|

Em B

e a o, a o.

o ceeo oo o.

Em B

co ,

co ,

co . op o,

Em B

Cepa e. ce a coo, ce a poco.

y op ococ. o pe oe eeo o

Em B

co ,

co ,

co ,

Solo x2

e|-3--2--0-----------3--2--0--2--7-----3--2--0--2--3--2--0--------|

B|----------4--0--------------------------------------------4--0--| -x2

G|----------------------------------------------------------------|

e|-0-0-0-0-0-0-0/3-3-3-3-3-3-3-3/5-5-5-5-5-5-5-5/8-8-8-8-8-8-8-8/|

B|---------------------------------------------------------------|

G|---------------------------------------------------------------|

e|/10-10-10-10-10-10-10-10/12-12-12-12-12-12-12-12-|

B|-------------------------------------------------|

G|-------------------------------------------------|

Em B

e a o, a o. o ceeo oo o. A

Em B

co ,

co ,

co . op o.