( )

A                                                   

CEOP AA . y a Ce

cyee:

e----------3--3------------------------------->

B--5-5-5-5------6--5-3---3-3-3-3-6--6-5--3---->

G------------------------------------------5-->

D--------------------------------------------->

A--------------------------------------------->

E--------------------------------------------->

e----------------------------------------|

B----------------------------------------|

G--5-5-5-5-5--5-4----4-4-4-4-5-4-2--5-2--|

D----------------------------------------|

A----------------------------------------|

E----------------------------------------|

ye: (o opo paec (8-5) oe)

e--8--8-7--5---10--10-8--7----10--10-8--7---8-7-8-10--12-->

B--------------------------------------------------------->

G--------------------------------------------------------->

D--------------------------------------------------------->

A--------------------------------------------------------->

E--------------------------------------------------------->

e--13-12-13-12--10---12--12-10-8---10--10-8-7--8-7-8-10--12-->

B------------------------------------------------------------>

G------------------------------------------------------------>

D------------------------------------------------------------>

A------------------------------------------------------------>

E------------------------------------------------------------>

e--13-12-13-12--10---12--12-10-8---10--10-8-7-----(8-5)-|

B-------------------------------------------------------|

G-------------------------------------------------------|

D-------------------------------------------------------|

A-------------------------------------------------------|

E-------------------------------------------------------|

1-e coo:

e----------------8--8-7--5------------------10--10-8--7-->

B-------------------------------------------------------->

G--5-5-5-5-4--2-------------5-5-5-5-2--5-4--------------->

D-------------------------------------------------------->

A-------------------------------------------------------->

E-------------------------------------------------------->

e-------------------10--10-8--7------------------8-7-8-10--12-->

B--3-3-3-3-----------------------3-3-3------3------------------>

G----------5.4h5p4---------------------5-4----5---------------->

D-------------------------------------------------------------->

A-------------------------------------------------------------->

E-------------------------------------------------------------->

e----------3--3------------------------------->

B--5-5-5-5------6--5-3---3-3-3-3-6--6-5--3---->

G------------------------------------------5-->

D--------------------------------------------->

A--------------------------------------------->

E--------------------------------------------->

e------------------10--10-8--7--------------------|

B-------------------------------------------------|

G--5-5-5-5-5--5-4---------------4-4-4-5-4-2--5-2--|

D-------------------------------------------------|

A-------------------------------------------------|

E-------------------------------------------------|

ye: (oce)

e--10-9-10-9.-7---12-10-12-10.-9h10p9-->

B-------------------------------------->

G-------------------------------------->

D-------------------------------------->

A-------------------------------------->

E-------------------------------------->

e--12-10-12-10.-9h10p9----10-9-10-9--14-->

B---------------------------------------->

G---------------------------------------->

D---------------------------------------->

A---------------------------------------->

E---------------------------------------->

e--15-14-15-14--12---14-12-14-12--10-->

B------------------------------------->

G------------------------------------->

D------------------------------------->

A------------------------------------->

E------------------------------------->

e--12-10-12-10--9h10p9---10-9-10-12--14-->

B---------------------------------------->

G---------------------------------------->

D---------------------------------------->

A---------------------------------------->

E---------------------------------------->

e--15-14-15-14--12---14-12-14-12--10-->

B------------------------------------->

G------------------------------------->

D------------------------------------->

A------------------------------------->

E------------------------------------->

e--12-10-12-10--9h10p9--|

B-----------------------|

G-----------------------|

D-----------------------|

A-----------------------|

E-----------------------|

ooa:

e----------5--5------------------------------->

B--7-7-7-7------8--7-5---5-5-5-5-8--8-7--5---->

G------------------------------------------7-->

D--------------------------------------------->

A--------------------------------------------->

E--------------------------------------------->

e----------------------------------------------->

B-----------------------------------------5--7-->

G--7-7-7-7-7--7-6----6-6-6-6-7-6-4--7-6-7------->

D----------------------------------------------->

A----------------------------------------------->

E----------------------------------------------->

e----------5--5------------------------------->

B--7-7-7-7------8--7-5---5-5-5-5-8--8-7--5---->

G------------------------------------------7-->

D--------------------------------------------->

A--------------------------------------------->

E--------------------------------------------->

e---------------------------------|

B---------------------------------|

G--7-7-7-7-7--7-6----6-6-6-7-6-4--|

D---------------------------------|

A---------------------------------|

E---------------------------------|

Xoy caa ce e opa ec: ec eaee o, o e ce coo, pop .. A o, oa opae ec p aopa, a-o acpoee aae. Ec ec ae-o oeap, peoe, opoc, e a

akkords85@mail.ru

Cepe