( )

A                                                   

intro:

e-1|----------------------|-----------------------------------------|

B-2|-12-12-10-12-10--8----|-12-12-10-12-10-8---8-13-12-10-----------|

G-3|-------------------9~-|-----------------------------------------|

D-4|----------------------|-----------------------------------------|

A-5|----------------------|-----------------------------------------|

E-6|----------------------|-----------------------------------------|

e-1|----------------------|-----------------------------------------|

B-2|-12-12-10-12-10--8----|-12-12-15-15-15-13-13-12--12-13--12-10-8-|

G-3|-------------------9~-|-----------------------------------------|

D-4|----------------------|-----------------------------------------|

A-5|----------------------|-----------------------------------------|

E-6|----------------------|-----------------------------------------|

G D Em C

, acoa, xo cope a op

ceao e apy pep

cpa e a aopax a ax

y a o e e , o oy o x

pe:

G D Em C

oe oa oeo } IV paa

, opya, xo-a a po

e cya pya aepy aep c oo

e aypao ceoay oecy

y a o e e , ce aop ooccy

pe

e-1|-----------------------------|\

B-2|-8-8-8-10-10-10-12-12-10-8-8-|\\

G-3|-----------------------------|\\\ II

D-4|-----------------------------|/// PAA

A-5|-----------------------------|//

E-6|-----------------------------|/

e-1|----------------------------------------|\

B-2|-8-10-12-12-12-10-10-10-8-12-13-12-10-8-|\\

G-3|----------------------------------------|\\\ II

D-4|----------------------------------------|/// PAA

A-5|----------------------------------------|//

E-6|----------------------------------------|/

, aea, xo ocya po

ceao e aoy poo

y a o e e , o y, pea e

a ec xyop o apy ec ao yy e

pe