( )

A                                                   

Intro:

E |-----------------------|---------------------|------------------|----

B |-----------------------|---------------------|------------------|----

G |-----------------------|---------------------|------------------|----

D |-----------------------|---------------------|------------------|----

A |--5--4--0----3--2------|--1--0---------------|------------------|----

E |-------------------3---|--------1---4--5-----|------------------|----

E |-----------------------|---------------------|------------------|----

B |-----------------------|---------------------|------------------|----

G |-----------------------|---------------------|------------------|----

D |-----------------------|---------------------|------------------|----

A |--5--4--0----3--2------|--1--0---------------|------------------|----

E |-------------------3---|--------1---4--------|------------------|----

o cye pop (oop paec a opae) ece occa Aa.

a oeo.

Ca-eepyp.