( )

A                                                   

Dm Gm

e ya, o co c ya.

Dm A Dm

c e a e ac yae.

ee yxa oa o-ya.

oa cyo e, y ye. x!

B F Gm Dm

o a ya, o o yo e a!

B F Gm Dm

Pa o yo e a, a e ya!

B F Gm Am

o a ya, o o yo e a!

Gm Dm A Dm

Pa o yo e a, a e ya!

a co yy cy xo py,

Xo oo, xo o oy a yo.

ece c e oe, a a coo.

C e pe e - e yo. x!

o a ya, o o yo e a! |

Pa o yo e a, a e ya! | 2x

ee ec y, y e - ea,

y oec py, a ea - caaa!

oa c c eo, cea cypo,

A a ye oo, oa c c yo. x!

o a ya, o o yo e a! |

Pa o yo e a, a e ya! | 2x

Solo:

E---------------------------------------------------------------

B---------------------------------------------------------------

G-------------------------12-15-12---12-12----------------------

D-------12-15-12---12-12-------------------15--15-15-15-15------

A-12-12---------------------------------------------------------

E---------------------------------------------------------------

E---------------------------------------------------------------

B--------------------------------15-15-15-----------------------

G-----------------------12-15-12---------14---------------------

D-------12-15-12-12-12---------------------15-15-15-14-15-14-12-

A-12-12---------------------------------------------------------

E---------------------------------------------------------------

Pea . aa