( )

A                                                   

Riff 1

E|----------------------------------------------|

H---------12----12----1213----13---13---13-----|

G|-10/12----12----12---------14---14---14---12--| -repeat 2 times

D|----------------------------------------------|

A|----------------------------------------------|

E|----------------------------------------------|

o Riff 1 paec epe yea (poe 4, epe e Riff 2).

Riff 2 (solo)

E|--11-11-11----9-9---3-3-3|

H|--12-12-12--10-10-3--3-3|

G|--10-10-10---8-8---3--3-3| -repeat 4 times

D|-------------------------|

A|-------------------------|

E|-------------------------|

oce paec co coee (oe 4 paa).

o Riff 2 paec ey 3 peo 4 yeo.