( )

A                                                   

Intro:

Dm F C Dm

E |------------------0---1-1-3-1-1-1-1----------------------|----

B |--3-----3-------3-----------------------1-1-1----6-5--3--|----

G |-----2--------2------------------------------------------|----

D |---------------------------------------------------------|----

A |---------------------------------------------------------|----

E |---------------------------------------------------------|----

Dm F C Dm

E |-------------------------------------------------------|----

B |--3-----3------3-5----6-6-8-6-6-6-6---5-5-5-5-6-5---3--|----

G |-----2-------2-----------------------------------------|----

D |-------------------------------------------------------|----

A |-------------------------------------------------------|----

E |-------------------------------------------------------|----

a cao ee oa pec e a eo, a aec a ep ,

ooy coey poa pa ece c Ceopo.

a oeo.

Ca-eepyp.