( )

A                                                   

intro

Am Dm G C Am Dm F E Am

solo:

e|-------------------------------------------------------------------------------------|

B|-5-5-5-5-5--3-5-6-5-3---3-3-3-3-3--1-3-5-3-1-0---1-0----0-1-0----1-0------3-5-3-1-0--|

G|-----------------------------------------------------2--------2------2---2-----------| x2

D|-------------------------------------------------------------------------------------|

A|-------------------------------------------------------------------------------------|

E|-------------------------------------------------------------------------------------|

Am

Coe oceo opo

F

po oopao o ca co

Dm

pocyc, opa

G E

Oy oa ypo.

Coo ep pa ye ce,

Coo ep pa cope,

o oy xo e e

e ceo 30 e.

pe:

Am Dm

o e po e a ce

G C

o e c oo oe

Am F

o e eo a cope

Dm E

e ceo 30 e.

o e cay oc pe

o e peoc oy e

o e oa o pe

e ceo 30 e.

Am

Coe, aac, oo e

F

ya ox yax e

Dm

e pyc ae e ea

G E

aa oa e oop.

Am

pyo a ya co apa

F

O e aey, o yy ,

Dm

oop e e :\\\"epc paa,

G E

ye popa caa. \\\"

pe:

Am Dm

o e po e a ce

G C

o e c oo oe

Am F

o e eo a cope

Dm E

e ceo 30 e.

Coo:

Am F Dm G

e|----------------------------------------------------------------------------------|

B|----------------------------------------------------------------------------------|

G|-5--4p5--4p5p4--2---5--4p5--4p5p4--2---7--5p7--5p7p5--4---4-5-7-10-9-7------------|

D|----------------------------------------------------------------------------------|

A|----------------------------------------------------------------------------------|

E|----------------------------------------------------------------------------------|

Am F Dm G

e|----------------------------------------------------------------------------------|

B|----------------------------------------------------------------------------------|

G|-5--4p5--4p5p4--2---5--4p5--4p5p4--2---7--5p7--5p7p5--4---7b--7b--7-7-10-9--------|

D|----------------------------------------------------------------------------------|

A|----------------------------------------------------------------------------------|

E|----------------------------------------------------------------------------------|

Coe oycoc a opo

oa y e caao o

Copac py co cex copo

py pya aoo

e pao ceo ,

e pao ceo ,

e pao po c a

a eo a oop.

pe

a aop: Am