( )

A                                                   

ap opoo - ea

intro

POP

Fill 1

C(-5)

eca co ey

Dsus2/F# F

o eceey, o y

C(-5) Dsus2/F# F G

Ooc e, ya oop aa c,

C(-5)

ae o oy oa,

Dsus2/F# F

A ea, xo ea

Am Dsus2/H F Em Am

o a ocpe pa aep a a c.

C Dsus2/F# F Em Am

o a ocpe pa aep a a c.

POP

ea c oo o

e o cey e,

Po c e y oa c pooa.

A o e yepa

ae oa ea,

a ee epeea c epeea. (x2 paa)

POP

oo caa ey,

ocoy oey-

oo a e, pooac.

o cpaxa ca e co,

O oec a oo,

A a ea c oo yac. (x2 paa)

coo

Fill 2

O ac e, aa,

O, a py o,

A a ea cee yxac.

Xo ocac o e o,

ceo o ee,

A ea a e cpo aepaac. (x2 paa)

POP

Intro

----------------------------------------------------------------------

Intro

e-|-0------- |

H-|--0------ |

G-|---2----- |

D-|----3---- |

A-|-----3--- |

E-|------0-- |

POP

Am Em F G Am Em F G

e-|----------------|----------------|----------------|12-------12----

H-|----5---5-6-565-|----------------|----5-------8---|---15-13----15-

G-|---------------7|5-454-4---------|--------7-------|---------------

D-|7---------------|-----7--5-------|7---------------|---------------

A-|----------------|------------7---|----------------|---------------

E-|----------------|----------------|----------------|---------------

Fill 1

C(-5)

e-|--------|--------|--------|--------|

H-|--------|5-------|--------|5-------|

G-|----5---|----5---|----5---|----5---|

D-|--4---4-|--4---4-|--4---4-|--4---4-|

A-|3-------|--------|3-------|--------|

E-|--------|--------|--------|--------|

coo

paec a 3/4

Am Em F G

e-|------------|------------|------------|----------|

H-|------5-----|------------|------5---8-|5---------|

G-|--4-5---7-5-|4-----------|--4-5---5---|----7-----|

D-|7-----------|--5---------|7-----------|----------|

A-|------------|----7-5-3---|------------|----------|

E-|------------|----------7-|------------|----------|

Am Em F G

e-|---------12-------|------------------|---------12----15-|---------

H-|---12-13----15-13-|12----------------|---12-13----15----|12-------

G-|14----------------|---12-------------|14----------------|---------

D-|------------------|------14-12-------|------------------|---------

A-|------------------|------------15-14-|------------------|---------

E-|------------------|------------------|------------------|---------

Am Em F G

e-|---8-10----|----10----12---|------------|----------|

H-|--------7--|-------10------|------------|------5---|

G-|/9---------|/12----------9-|4-5---4-----|4-5-7-----|

D-|-----------|---------------|----7---5-7-|----------|

A-|-----------|---------------|------------|----------|

E-|-----------|---------------|------------|----------|

Am Em F G

e-|---------12-------|------------------|---------12----15-|---------

H-|---12-13----15-13-|12----------------|---12-13----15----|12-------

G-|14----------------|---12-------------|14----------------|---------

D-|------------------|------14-12-------|------------------|---------

A-|------------------|------------15-14-|------------------|---------

E-|------------------|------------------|------------------|---------

Fill 2

C(-5)

e-|----------|--------|--------|--------|

H-|-------|5-------|--------|5-------|

G-|---5---|----5---|----5---|----5---|

D-|-4---4-|--4---4-|--4---4-|--4---4-|

A-|-3--------|--------|3-------|--------|

E-|----------|--------|--------|--------|