АККОРДЫ ДЛЯ ГИТАРЫ

главная аккорды и песни песни

Песни под гитару

Самоучитель игры на гитаре (для новичков)

Аккорды к песням

A  Б  В  Г  Д  Е  Ж  З  И  К  Л  М  Н  О  П  Р  С  Т  У  Ф  Х  Ч  Ш  Э  Ю  Я 

Ногу свело

Вcтyплeниe (игpaeтьcя двa paзa)

|--------------------------------------------------------------------------|

|--------------------------------------------------------------------------|

|--------------------------------------------------------------------------|

|--------2-0---------------5---3-2-0---------------------------------------|

|---0--------3-2-0----3------3-------3-------5-3-2-0----------3---2-0------|

|----------------------------------------3-----------3----0-----0-----4----|

|--------------------------------------------------------------------------|

|--------------------------------------------------------------------------|

|--------------------------------------------------------------------------|

|--------2-0---------------5---3-2-0---------5---5-----5-----5---5---------|

|---0--------3-2-0----3------3-------3-----5-------5-----5---------5-------|

|----------------------------------------3-----3-----3-----3---3------0----|