( )

A                                                   

oy Ceo

\"e cee ooca\"

opa: xae oca (Nik-name: Fa_T_aL)

----------------------------------------------------------------

Intro Solo:

First Time:1

E |----0-----------------------------------------------------

H |---------3-1-0--------------------------------------------

G |----------------2----0------------------------------------

D |-------------------------3-2-0-----0----------------------

A |--0---0------------3---3-------3-------3-2-0------3--2-0--

E |---------------------------------3---3-------3--0---0----3-

Second Time:2

E |----0-----------------------------------------------------

H |---------3-1-0--------------------------------------------

G |----------------2----0---------------0-0-0-0-1------------

D |-------------------------3-2-0------0-0-0-0---------------

A |--0---0------------3---3-------3--------------------------

E |---------------------------------3------------------------

Pa aca a ee...(oce oo paec o coo)

E |----3---5-3-----------------------------------------------

H |--3---3-----3---------------------------------------------

G |----------------------------------------------------------

D |----------------------------------------------------------

A |----------------------------------------------------------

E |----------------------------------------------------------

(oce pea ceye Middle Solo)

Middle Solo:1

E |----------------------------------------------------------

H |----------------------------------------------------------

G |------9-7-5-7-5-4-4-----5---------------------------------

D |----7-----------------5---7-------------------------------

A |--7-----------------7-------------------------------------

E |----------------------------------------------------------

Middle Solo:2

E |----------------------------------------------------------

H |----------------------------------------------------------

G |----9-7-5-7-5-4-4-----------------------------------------


D |--7-------------------------------------------------------

A |----------------------------------------------------------

E |----------------------------------------------------------

o a ye a cooe...(oce oo paec o coo)

E |----------------------------------------------------------

H |--17-12---------------------------------------------------

G |--------12-14---------------------------------------------

D |----------------------------------------------------------

A |----------------------------------------------------------

E |----------------------------------------------------------

O peae,o ceo oe...(oce oo paec o coo)

E |-----------------------------------3---5-3----------------

H |---------------------------------3---3-----3--------------

G |------5---------------------------------------------------

D |----5---7-------------------------------------------------

A |--7-------------------------------------------------------

E |----------------------------------------------------------

pee ece c acco paec In The End Solo:1 In The End Solo:2

oce pea e pop...

e a poy xoo

E |-----------------------------------3---5-3----------------

H |---------------------------------3---3-----3--------------

G |------5---------------------------------------------------

D |----5---7-------------------------------------------------

A |--7-------------------------------------------------------

E |----------------------------------------------------------

a poae a oo ce

E |--12-10-8-10-8-7-----8----12-10-8-10-8-7-7h8-7h8-7h8-7h8-7h8-

H |-------------------8---10------------------------------------

G |-----------------9-------------------------------------------D

|-------------------------------------------------------------A

|-------------------------------------------------------------E

|-------------------------------------------------------------

pee ece c acco paec In The End Solo:1 In The End Solo:2

In The End Solo:1

E |----------------------------------------------------------

H |----------------------------------------------------------

G |--14-------14----12------12----12-------12--12----12------

D |-----14-14----14---14-14----14----12-12--------14----14---

A |----------------------------------------------------------

E |---------------------------------------------------------

In The End Solo:2

E |----------------------------------------------------------

H |----------------------------------------------------------

G |--14-------14----12------12----12-------12-----16----16---

D |-----14-14----14---14-14----14----12-12----12-----17----17---A

|-------------------------------------------------------------E

|-------------------------------------------------------------

Aoaee:

Am C G Em

oae cycceoo ea

e a aeo coe

yax cycceoo cea

Pa aca a ee

p:

oe e yca

a e cee ooca

eep x oo ca eeca

oa e co

a oe cee ea

eep x o oo a

p:

o a ye a cooe

o epy oy a

O peae,o ceo oe

cpao oceeo y

p:

e a poy xoo

oc eo a yce

a poae a oo ce

ec ape ceo

---------------------------------------------------------------

Bass Tab:

oae cycceoo ea

Am C G Em

E |----------------------------------------------------------

H |----------------------------------------------------------

G |----------------------------------------------------------

D |----------------------------------------------------------

A |--0-0-0-0--3-3-3-3----------------------------------------

E |--------------------3-3-3-3--0-0-0------------------------

e a aeo coe

Am C G Em

E |----------------------------------------------------------

H |----------------------------------------------------------

G |----------------------------------------------------------

D |----------------------------------------------------------

A |--0-0-0-0--3-3-3-3----------------------------------------

E |--------------------3-3-3-3-3-3-4-------------------------

pee paec oe o yee ao e oceoaeoc.

acc ye, pee, pope ee oao.

(oea Bass Tab opa a ayce o accc ca oy a epeea ay a accyxy!)