( )

A                                                   

aoacp a 1 ay

1|------------------------------------------------------------------------------------------------------

2|------------------------------------------------------------------------------------------------------

3|------------------------------------------------------------------------------------------------------

4|--2----3----2----3--2--0----------------------------------2----3----2----3--2--0----------------------

5|-0----0----0---0----------3---2---3----5-----2-3-2-3-----0----0----0---0----------3----2---3---5---7--

6|-----------------------------0---0---0----0-------------------------------------------0---0---0---0---

1|------------------------------------------------------------------------------------------------------

2|------------------------------------------------------------------------------------------------------

3|---2-----4----5----7-5-45-----------------------------------------------------------------------------

4|-0----0----0----0------------2---3---5------2-3-2-3---------------------------------------------------

5|----------------------------0---0---0----0-----------2---3---5---7---8---7---8---7--------------------

6|----------------------------------------------------0---0---0---0---0---0---0---0---------------------

Am(V)_Am Am(V)_Am A#7 E7(VII)

Paye aa a oee 1|-6-| 1|-7-|

A#7 A#7 2|-6-| 2|-9-|

aay pxoa pax epe. 3|-7-| 3|-7-|

Am(V)_Am Am(V)_Am 4|-6-| 4|-9-|

o-o ea xo a ooo 5|-8-| 5|-7-|

A#7 A#7 6|-6-| 6|-7-|

c pyc cope a cacx e.

E7(VII) E7(VII)

Ce poepao epecaye

Am(V) Am(V)

a epepcax acaox e.

A#7 A#7

oo a cpaxo e y

Am(V)_Am (ay cpy)

xo py

N.C. Am_Asus2

a ooc e.

Asus2

1|-0-|

Dm(V)_Dm Dm(V)_Dm Am_Asus2 2|-0-|

yyyyyyyyyyyyyyyyy 3|-2-|

Dm(V)_Dm F (ay cpy) 4|-2-|

yyyyyy-yyy 5|-0-|

N.C. Am_Asus2 6|-0-|

a aac e.

A opo poc a po eo,

yca ce co opaex e;

eo ao co oyoc,

poca oa paape ee.

Oa ae o o e ae peaoc,

Oa a e e o.

E cepepo a o eoc

eo, oa

ocac o.

yyyyyyyyyy

yyyy-yy

a aac e.

A pe eo o ae a cpyax,

Cea coa cc pox e;

A po epee ccac a e,

acac co ox oe.

Oa oa e yae o ae,

eae a e popao pe,

a oa e oaa o

e cae cee

apae

yyyyyyyyyy

yyyy-yy

a aac e

peae:

Mary, caco a xopo oop. aec, e eo yey, a e ye po. :)

o ece co. oac oc, a eo cy.

Am(V)_Am paec a:

epe aop Am(V) poo yaae ae peo , oce eo

poo o ao cpye cpe ae oe y (oo 3 paa );

oce oo epe aop Am epo o poo o cpya cpo epx--epx-aya.

Aaoo paec Dm(V)_Dm

Am_Asus2 paec a:

y poco a cyx cpo e ay o o cpya epx , epoec ypa

yaae ae eo py co opo cpy.

Ec o-o e, a o eae Apea, o ae, e cecec. o apa ae o eaa.

cexo. :)

[Thise chords was originally modified by Tarik]