( )

A                                                   

C A7 Dm A#

e|-----------------|-------------------------|-------------|--------------6---|

b|1----0p1---------|-----------2----~3---2--5|-----6----8--|-----7------6---6-|

g|---0-----0-----0-|---------0---0----0---0--|---7---7----7|---8---8---7-7-7-7|

d|--2-2---2-2---2-2|--2--0--2-2-2-2----2-2--5|--7-7-7-7--7-|--8-8-8-8---------|

a|3-----------3----|-3--2--0---------0-------|-5-----------|-6----------------|

bass:

d|-----------------|-------------------------|--------3-2-0|------------------|

a|3----------------|-3--2--0--------5--7---10|-5-----------|-1----------5---2-|

e|-----------------|-------------------------|-------------|-------3----------|

C

oa xoe yp

A7

y o ao y

Dm

oa xoe cy

A#

e a coae xo o-o a ye

C

a oo y oaa

A7

ococe e eoy a

Dm

xo eoo ooa

A#

oo co, o yo cao

F

xo-o-o-o

A

xo-o-o-o

Dm

xo-o-o-o

A#

xo-o-o-o

oa ee ea

ep ye e oc

a epo-coeo pe ce

eo-ce ce yoc

oa e e cx

a ace y a a apae

oe ea a yx

oa xopoee

c oa

xo-o-o-o

xo-o-o-o

xo-o-o-o

xo-o-o-o c oa

xo-o-o-o

xo-o-o-o

xo-o-o-o

xo-o-o-o c oa

;ayaypa - poa a ey, o ooo a opay

;(ayceco epc).

;A# - C-eo(Bb)

;Cpae (savarez@mail.ru)