( )

A                                                   

INTRO (bass):

1//--1-----1-----1---0-----0-----0---

2//----2-3---2-3---3---2-3---2-3---3-

3//----------------------------------

4//----------------------------------

F F/H F/C

oc aee, oc epeo,

Em Em/H Cmaj

oya aa coe o,

D D/A D/C

yp y e xooee o y,

Am Am/H Am/C

eye ao e a ce ?

G

, oope y ao o,

C

, oope y oo o,

F

, oope xpa a ceo,

Em Em7

, oope ea o ee...

Am

oa eao a apy pe,

D

oa eao a pe a,

F

a pyy a oopo epaa ae,

Em G

e ye xa pyo a!

Am D

1//-----------------------------------------

2//-----------------------------------------

3//--2--2--45--2--2--45--2--2--45--2--2--45-

4//-----------------------------------------

5//-----------------------------------------

6//-----------------------------------------

F Em G

1//-----------------------------------------

2//-----------------------------------------

3//--2--2--45--2--2--45--4--4--45--4--4--45-

4//-----------------------------------------

5//-----------------------------------------

6//-----------------------------------------

x coee ce pe cex,

oa eo e xaae a cex,

O oc cex aeax,

o a cey e ae oy aeax.

, oope poa ee,

, oope cpaa o o,

, oope cpe e,

o p o e oy ec y e co...

O oa eao a apy pe,

O oa eao a pe a,

a pyy, a oopo epaa ae,

ye xa pyo a!

F/H x23211

F/C x33211

Em/H x22000

Cmaj x32000

D x5423x

D/A x0423x

D/C x3423x

Am/H x22210

Am/C x32210

Em7 022070