( )

A                                                   

ayyc oyc - Coae Oo e

(. yyco - . ope)

Am F7 Am F7

||-------------|------------|-------------|------------||

||---1-0-------|--4----3----|--1-0--------|------------||

||*------2-0-2-|------------|------2-0-2--|-----------*||

||*------------|------------|-------------|---3-------*||

||-------------|------------|-------------|------------||

||-------------|------------|-------------|------------||

_pop oce 2o p. ______________

|1.

Am F H7 E

||-------------|--0--1-0-----|-------------|------------||

||-----0-1--3--|----------3--|--1--3-1-----|--0---------||

||*-2----------|-------------|----------2--|-----------*||

||*------------|-------------|-------------|-----------*||

||-------------|-------------|-------------|------------||

||-------------|-------------|-------------|------------||

____________________

|2.

E Emaj E Emaj

||-0--(0)-000-0-|----------2---|-----0-(0)-000-0-|------------||

||--------------|-4--(4)-45--4-|-5653------------|-4----------||

||--------------|--------------|-^^^^|-----------|------------||

||--------------|--------------|-----|-----------|------------||

||--------------|--------------|-----|-----------|------------||

||--------------|--------------|-----|-----------|------------||

|------------------|

|coec eao|

|------------------|

Em C H

pyoa opya ae, a oo.

Em C H

epy -o pyy, a ycy oo,

Em C H

y aa, a ycy

Em C H

a, e e oo axoc a,

Em C H

a pac ocxoo - poo aa,

Em C7

Coae oo e,

Em C7

Cae oo e,

Em C7

Coae oo e,

Em C7

Cae oo...

ec cyca

a pocpaca opo

ec coca c

o cea oo

o coa yxo

pye y

ec poe op

pa poepx yp

epy paee ae eyc

a coax oo e

cax oo e

coax oo e

cax oo e...

oo ep ocyce ep

oo ea ocyce ea

e oc oc a

o o x ea apapoaa

ec oo pa po ce a pye

o a e pa ce pae oo

ec ec e o pxo ee

ayc e o pe a oo

ae coae oo e

cae oo e

coae oo e

cae oo...

ec e y

o axo capoc

ec epo pao

ca ycaoc

ec e eoe

aeax o

ec epe a ocex oxo

e ee ocex

yca oe

coa oo e

ca oo e

coa oo e

ca oo e...

coae oo e

cae oo e

coae oo e

cae oo e

coae...