( )

A                                                   

Ax, pa
Ax, ao ca a
Caa xa ec
Coa
Cea
Cea (2)
C a
Ca, o py
Ca
Coo e Coo
Cope
Ce
Ce (2)
Coa eca
Cycac eo pee
Capa opoa
Cape py
Cape ec
Cap Po--po
Cap opa
Cap opa (2)
Cpae
Cyaac Oa ea Cpe
Ec poce
Ec opoe oe ce
Oca e
Oca e (2)
Oa p poec o ac
Oa p poec o ac (2)
O cape ee
O pae a oxopoax aax
O pae a oxopoax aax(apa)
Oa e o cec
Oa e o cec (2)
Opoy p ex Co
Oycoee
Paoop oee
Pe oc
Poo o
Poececa ec
Pa Paa
Pa ae
Xpyca opo
Xyo
apep
epeo pe
epeo pe ( oax)
e o pyy
e e
poe eo
o eycoo pee ca
op ac
op ac (2)
pye Cea
aeo opoe
o e, oa aoc opoa
apee
apee (2)
ce ex a
cea Oo
ec p Coe C a
ep
eep a opoo
eep ae
o ce
epx
ea oap e
epo epax e
ooe
aopy
a e pyy ya o
ae ae
e a
e Poe
e ea
e ea (2)
opoa eo
oao
a ex cea
a ex, o ope
ape ep
e e E epo
e e E epo (2)
a oo
eo
aee
a
oa o
apaa
apoe p
aeap
ocep
ocep (2)
oo xoe y
oa ee e
oa ce Coe C a
oa e ye 18
oa e
oa o
oea
oa, oopa ye caa o cee
p eo
o oe a
ey oae

a

oax (3)
ac
apoe
apoe (3)
apoe (4)
apoe (apa)
aee epo
aee epo (2)
eco e ce
eco e ce (2)
e aaa
opco ao
opco ao (2)
ope
o o
o py (ye cex pae )
ya o ceo
ya o ceo (2)
ya
Pacxoc o oa
a Apocox Xoax
a Ce epax
ac ee e coy o
aa
aao
a Ocpo
a o
a o (3)
a o (apa)
a oa
e ao a
e a Oo e
e a Oo e (2)
eoao pyca ec
o
eo e
ay
a cooo
a oa eoa
ecea po Cace
ecea po opoy
ec O Cpae
ec o aae
ec oaa Ca
ec oopo e
epepeco
epepeco (2)
ep a
o op aa
ocaec 15 e
ocee apxeypoy
ocee Cy aepy
ocee Xopoey aooy
oopo
oopo (4)
oopo(apa)
oa op cea
oa e Cye ypo
o
o
pooa
yc Oea
yc Oa Cae eo
y
ec Po
ae ea ae o
a, e ye o e
e, o e
ya
xe ec

xo - xo
e Pey
pe Ae ycx yo
a
a a ao
a a ao (2)
ep
epe Ceo
ye Cpe yx
o
oxa oo e
o o a ao
o o (ea)
o e
ca ee epyc
ca ee epyc (3)
a ee a
a ca a oe

a a ao
(A. aape)

Intro: A**_Aadd9*_A***_D7sus4*_Am*_H-5sus4add9*_A*

(D)a(D/C#*) eo pe(D/C*), o ca(Hmb6*), (B7*)
(A7)o p e(D),
(D)O(D/C#)yc(D/C) a pe(Hmb6)oc a (B7*)
(A7) opoa op(Hm). (F#m)
(G)yc oa(C) oe(G) opo o(C*),
(A7)yc e oope(Dm). (B)
e(C) cyaoxe co
(A7)a o e ae(D).
(D)a(D/C#) eo a, o (D/C) copoe(Hmb6), (B7*)
(A7)o peae e (D).
(D)y(D/C#)c pye (D/C)oea oe(Hmb6) (B7*)
(A7) ca oc(D). (D7)
(G)oy oa
(Em) eoo ocaoc,
(Hm) ce oay
ye e(H7)e ceo.
Em*_Em/D#*
O ey(Em/D*)x oe
(Em/C#*)Ocaec ycaoc,
(A7)Ec apa e
e cy eo(Dm).
G_Dm_G
(D) a pyo cepe(D/C#)
(D/C) cepe ce e(Hmb6), (B7*)
(A7) co xoo pa(D)
(D)o(D/C#)a a a(D/C)e e(Hmb6) (B7*)
(A7)Co ece a(Dm).
Coda: Dm/C*_G_Hm

Chords:
---------------------
A** - X0X232
Aadd9* - XX7657
A*** - XX7655
D7sus4* - XX0213
Am* - X0X210
H-5sus4add9* - XX0030
A* - X02220
D/C#* - X4X232
D/C* - X3X232
Hmb6* - X2X032
B7* - X1X021
C* - X32013
Em* - X7X000
Em/D#* - X6X000
Em/D* - X5X000
Em/C#* - X4X000
Dm/C* - X3X231
---------------------

tab_intro:
1|-9-----9-7-----7-5----5-3------3-0-----0------0---------------
2|-----5-------5------5-------1--------1---3--3----0-------0---2
3|---6-------6------6-------2--------2-------0---------2-----2--
4|-----------------------------------------0---------2---2------
5|-0-------0-------0------0--------0---------------0------------
6|--------------------------------------------------------------

Example_tab:
1|-2----2-----2----2------2----2----------2----2----
2|-3----3-----3----3------3----3----------3----3----
3|-2--2---2---2--2---2----2--2---2--------0--0---0--
4|-0------------------------------------------------
5|------------4-----------3---------------2---------
6|--------------------------------------------------
a eo pe, o ca...

Second edition. Chords writed by Sarto, tabs - by Tarik.

Good luck! :)