( )

A                                                   

 

Song:yea coo
E -10-10-|-10-7-7-7-|-14-14-14-10-10-7-|-12-10-7-|-12-10-7-10-7-10-|-7
B -------|----------|------------------|---------|-----------------|--
G -------|----------|------------------|---------|-----------------|--
D -------|----------|------------------|---------|-----------------|--
A -------|----------|------------------|---------|-----------------|--
E -------|----------|------------------|---------|-----------------|--

E -7-7-7-|-14-14-14-14-10-10-10-7-|-12-10-10-7-|-12-10-7-12-7-10-7-|--
B -------|------------------------|------------|-------------------|--
G -------|------------------------|------------|-------------------|--
D -------|------------------------|------------|-------------------|--
A -------|------------------------|------------|-------------------|--
E -------|------------------------|------------|-------------------|--

E ----|-12-12-10-12-10-|-12-10-12-10-12-10-12-14-|------|-12-10-12-10-
B ----|----------------|-------------------------|------|-------------
G ----|----------------|-------------------------|------|-------------
D ----|----------------|-------------------------|------|-------------
A ----|----------------|-------------------------|------|-------------
E ----|----------------|-------------------------|------|-------------

E 14-|-7-10-7-10-5-7-|-14-12-10-14-12-10-|-14-12-10-14-12-10-|-14-12-1
B ---|---------------|-------------------|-------------------|--------
G ---|---------------|-------------------|-------------------|--------
D ---|---------------|-------------------|-------------------|--------
A ---|---------------|-------------------|-------------------|--------
E ---|---------------|-------------------|-------------------|--------

E 0-14-12-10-14-|-7-7-10-|-7-|------|------|-10-10-|-10-7-7-7-|-14-14-
B --------------|--------|---|------|------|-------|----------|-------
G --------------|--------|---|------|------|-------|----------|-------
D --------------|--------|---|------|------|-------|----------|-------
A --------------|--------|---|------|------|-------|----------|-------
E --------------|--------|---|------|------|-------|----------|-------

E 14-10-10-7-|-12-10-7-|-12-7-10-7-10-7-10-|-7-7-7-|-14-14-14-10-10-7-
B -----------|---------|-------------------|-------|------------------
G -----------|---------|-------------------|-------|------------------
D -----------|---------|-------------------|-------|------------------
A -----------|---------|-------------------|-------|------------------
E -----------|---------|-------------------|-------|------------------

E |-12-10-7-|-12-12-12-12-7-10-|-7-|-12-12-10-12-10-|-12-10-12-10-12-1
B |---------|------------------|---|----------------|-----------------
G |---------|------------------|---|----------------|-----------------
D |---------|------------------|---|----------------|-----------------
A |---------|------------------|---|----------------|-----------------
E |---------|------------------|---|----------------|-----------------

E 0-12-14-|------|-12-10-12-10-14-|-7-10-7-10-5-7-|-14-12-10-14-12-10-
B --------|------|----------------|---------------|-------------------
G --------|------|----------------|---------------|-------------------
D --------|------|----------------|---------------|-------------------
A --------|------|----------------|---------------|-------------------
E --------|------|----------------|---------------|-------------------

E |-14-12-10-14-12-10-|-14-12-10-14-12-10-14-|-7-7-10-|-7-|
B |-------------------|----------------------|--------|---|
G |-------------------|----------------------|--------|---|
D |-------------------|----------------------|--------|---|
A |-------------------|----------------------|--------|---|
E |-------------------|----------------------|--------|---|

Solo was written by a oeo. Nickson_84@mail.ru
ep oopae o co, ec oc opa ae a.