( )

A                                                   

 

y po - aco

Tabbed by Screw (screww@inbox.ru)

Intro (play 2 times)

E5 E5 E5 E5 E5 E5 A5 A5 A5 A5 A5 A5
1)-7-7-7----------------------------- | -7-7-7----------------------------|So
2)-------5--5---8-7-8--5---8-7-8--5-- | -------5--5---8-7-8--5---8-7-8--5-|lo
| | | | | | | | | | | | |
4)-2-----2--2----------2---2------2-- | -7-----7--7----------7---7------7-|Rh
5)-2-----2--2----------2---2------2-- | -7-----7--7----------7---7------7-|y
6)-0-----2--0----------0---0------0-- | -5-----5--5----------5---5------5-|tm

E5 A5 C5 C5
3)---------------------------5-5-5--5-5-5--5-5-5--5-5-5---------------------- |
4)-2-2--2-2-2--7-7-7--7-7-7--5-5-5--5-5-5--5-5-5--5-5-5---------------------- |
5)-2-2--2-2-2--7-7-7--7-7-7--3-3-3--3-3-3--3-3-3--3-3-3---------------------- |
6)-0-0--0-0-0--5-5-5--5-5-5-------------------------------------------------- |

Em
Ax, ec ,
C
o a oo yep,
A
Coe ae,
C
x peaec.

Em
Ho e e cepac,
A
apoe ye -
C A
Hey pe, ey cpec,
C
He oya, a ooa,
Em
a ocpa,
A
Oo e pec,
C
opaac eao.

Esus4 E
He oca e c e c oo,
Dm7 E
Cae cpao a ap a,
D#
ae aoa,
Gm
e o opy a aco,
E
Paaec aco,
D#
oaco pac .

o oae, o,
He oca a y
ae pa oey -
yc ype c o oo,
Ho ee a a pao,
coce coce ao,
Ho pe o ea aac,
aax acpea yoo aepa,
Ocopo ypca
He ocaec aa,
- yca, e a pa...

Solo
^full ^full(4 times) ^ ^
1)------5--5--5--4----------------8-------------------------/10--8--6-------|
2)----------------------------/-5----5-6--10--8--7--------8-----------------|
3)-/-2-----------------------------------------------7--8-------------------|
^ ^full
1)-10-----/17--15---19-----19-17-16---19--19-20-----------20--20------------|
2)----11---------------17-------------------------18------------------------|
3)--------------------------------------------------------------------------|