( )

A                                                   

 

y po - e

Intro:
Am Asus2 F Fm
E|-0-0-x-0-0---x-0-|-0-0-x-0-0-0-x-0-|-1-1-x-1-1-1-x-1-|-1-1-x-1-1-1-x-1-|
B|-1-1-x-1-1---x-1-|-0-0-x-0-0-0-x-0-|-1-1-x-1-1-1-x-1-|-1-1-x-1-1-1-x-1-| GU
G|-2-2-x-2-2---x-2-|-2-2-x-2-2-2-x-2-|-2-2-x-2-2-2-x-2-|-1-1-x-1-1-1-x-1-| IT
D|-2-2-x-2-2---x-2-|-2-2-x-2-2-2-x-2-|-3-3-x-3-3-3-x-3-|-3-3-x-3-3-3-x-3-| AR
A|-0-0-x-0-0---x-0-|-0-0-x-0-0-0-x-0-|-3-3-x-3-3-3-x-3-|-3-3-x-3-3-3-x-3-|
E|-----------------|-----------------|-1-1-x-1-1-1-x-1-|-1-1-x-1-1-1-x-1-|
| | | | | | | | | | | | | | | | | | | | | | | | | | | | | | | |
G|-5---------------|-4---------------|-2---------------|-1---------------| VO
A|-----------------|-----------------|-----------------|-----------------| IC
| | | | | | | | | | | | | | | | | | | | | | | | | | | | | | | |
A|-0-----0-0-----0-|-0-----0-0-------|-----------------|-----------------| BA
E|-----------------|---------------3-|-1-----1-1-----1-|-1-----1-1-------| SS
Intro X3

Verse:
Am Am Dm Dm
e o oy o oy e ayc eo ca
Em Em Dm Em
a y co y oo e e ac-aca
Am Am Dm Dm
Pee ooc e paee oc ca paa
Em Em Dm Em
a eee pace ocac c c a po

Chorus:
Dm7 G C Am
oe, oe e ooe
F F Dm7 Dm7
coaec oa
G G C Am
oe e y, ce a
F F E E Am Asus2
ae, e ye e ao
F Fm Am Asus2 F Fm
ce e a y ao

Verse:
Am Am Dm Dm
oa e apy po p xoc ao
Em Em Dm Em
e ca poco op oo e peocooe
Am Am Dm Dm
e aa e e oae e oa
Em Em Dm Em
Hapcy cy ee e e oa

Chorus

Solo: C C E E Am Asus2 F Fm Am Asus2 F Fm C C E E

Chorus