( )

A                                                   

 

y po - Copoc

Intro:
C E Am Am
G|-10--------------|-9------/9-9-7-9-|-7---------------|-----------------|
D|-----------------|-----------------|---10------------|------------10-10|
| | | | | | | | | | | | | | | | | | | | | | | | | | | | | | | |
|-3-3-3-3-3-3-3-3-|-7-7-7-7-7-7-7-7-|-----------------|-----------------|
E|-----------------|-----------------|-5-5-5-5-5-5---5-|-5-5---5-5-5---5-|

Dm F C C
G|-----------------|-----------------|-----------------|-----------------|
D|12-10--6---------|---------6-6-8-6-|-6-5-------------|-----------------|
| | | | | | | | | | | | | | | | | | | | | | | | | | | | | | | |
A|-5-5---5-5-5---5-|-----------------|-3-3---3-3-3---3-|-3-3---3-3-3---3-|
E|-----------------|-1-1---1-1-1---1-|-----------------|-----------------|

Verse:
C Am Em Em
ocya papac y
C Am Em Em
Kpo ea c coo co o
C Am Em Em
eo ay e py
C Am Em Em
O eep, o o

Chorus:
C G Dm Am
pcec aepo pee
C G Dm Dm
co pey copoc
C G Dm Am
Hac c oo o py e y ece
C G Dm Dm
M e o pae copo ooc.

Intro

Verse:
C Am Em Em
Koy ape aea y
C Am Em Em
aa o ea eceo
C Am Em Em
pa a cax py opya
C Am Em Em
Oca a a, ooe eo.

Chorus X2