( )

A                                                   

oo e xo o e

-------------------------

tabbed by Veselov Stanislav

 

Tempo: 90 bpm;

Measure: 6/8;

 

intro

C D G Em

Gtr.1 E|-------------|-------0-----|-------2-----|-------------|

H|-------------|---------1---|-----3---3---|-------------|

G|-------------|-----0-----0-|---2-------2-|-------------|

D|-------------|---2---------|-0-----------|-----0-----2-|

A|-------------|-3-----------|-------------|---2-----2---|

E|-------------|-------------|-------------|-3-----0-----|

| h p |

Gtr.2 G|---------4/--|-9-----------|---7-9-797---|-4-----------|

D|---2-4-5-----|-------------|-------------|-------------|

Am Em H7 Em

Gtr.1 E|-------------|-------------|-------------|-------------|

H|-------1-----|-------------|-------0-----|-------0-----|

G|-----2---2---|-------0-----|-----2---2---|-----0---0---|

D|---2-------2-|-----2---2---|---1-------1-|---2-------2-|

A|-0-----------|---2-------2-|-2-----------|-------------|

E|-------------|-0-----------|-------------|-0-----------|

| |

Gtr.2 G|--/5-5-5-4-2-|--/4-4-4-2-0-|--/2-2-2-----|-------------|

D|-------------|-------------|---------1-2-|-------------|

 

E:

 

Em Am H7 Em

Gtr.1 E|-------------|-------------|-------------|-------------|

H|-------------|-------1-----|-------0-----|-------------|

G|*------0-----|-----2---2---|-----2---2---|-------0----*|

D|*----2---2---|---2-------2-|---1-------1-|-----2---2--*|

A|---2-------2-|-0-----------|-2-----------|---2-------2-|

E|-0-----------|-------------|-------------|-0-----------|

 

oo e xo o e, eo oo ao e.

Ooec cepe epeoe, ecaaoe, yoe, eoe?

 

E Am D G H7

Gtr.1 E|-------------|-------------|-------2-----|-------------|

H|-------0-----|-------1-----|-----3---3---|-------------|

G|-----1---1---|-----2---2---|---2-------2-|-----0-----2-|

D|---2-------2-|---2-------2-|-0-----------|---0-----1---|

A|-------------|-0-----------|-------------|-------2-----|

E|-0-----------|-------------|-------------|-3-----------|

 

Coa cyep xo eccoe, Coa ac e cea ooe.

 

Em Am H7 Em

Gtr.1 E|-------------|-------------|-------------|-------------|

H|-------------|-------1-----|-------0-----|-------0-----|

G|-------0-----|-----2---2---|-----2---2---|-----0---0---|

D|-----2---2---|---2-------2-|---1-------1-|---2-------2-|

A|---2-------2-|-0-----------|-2-----------|-------------|

E|-0-----------|-------------|-------------|-0-----------|

 

a a cpe copoa. oo e xa poa.

 

 

PE:

 

C D G Em

Gtr.1 E|-------------|-------0-----|-------2-----|-------------|

H|-------0-----|---------1---|-----3---3---|-------------|

G|*----0---0---|-----0-----0-|---2-------2-|-------------|

D|*--2-------2-|---2---------|-0-----------|-----0-----2-|

A|-------------|-3-----------|-------------|---2-----2---|

E|-0-----------|-------------|-------------|-3-----0-----|

| h p |

Gtr.2 G|---------4/--|-9-----------|---7-9-797---|-4-----------|

D|---2-4-5-----|-------------|-------------|-------------|

 

oo e a aae - a

Am Em H7 Em

Gtr.1 E|-------------|-------------|-------------|-------0-----|

H|-------1-----|-------0-----|-------0-----|-----0---0---|

G|-----2---2---|-----0---0---|-----2---2--*|---0-------0-|

D|---2-------2-|---2-------2-|---1-------1*|-------------|

A|-0-----------|-------------|-2-----------|-------------|

E|-------------|-0-----------|-------------|-0-----------|

| |

Gtr.2 G|--/5-5-5-4-2-|--/4-4-4-2-0-|--/2-2-2-----|-------------|

D|-------------|-------------|---------1-2-|-------------|

oo e,

pyc-ea o,

oo e...

 

E:

 

a-cyec ae cae,

ayoc c oo paccaae.

C ec a opoo pec,

e ocyec e e aec...

ooo , aee xo ,

oo o c oo poexa.

a pyo, ao,

ae oo opo e e.

 

PE:

 

E:

 

oo e xo o e,

eo oo ao e.

a cyec ae cae,

epyc, cepy oeae...

 

 

P.S. ae xoy peo coe epeoee cye/pea 1 ap.

Coo coxpaeo ooc, poe cao. epo ae caea oa \"pe\" a

opo cpye (3- a opo cpy) aoe oyec ay, oopa

opae aoea cao.

 

C h p G Em

Gtr.1 E|-------------|-0-----0-----|-------------|-------------|

H|---------0-3-|---------1---|---3-5-353---|-0-----------|

G|-------0-----|-----0-----0-|-----------2-|-------------|

D|---2-4-------|---2---------|-0-----------|-----0-----2-|

A|-------------|-3-----------|-------------|---2-----2---|

E|-0-----------|-------------|-------------|-3-----0-----|

 

Am Em H7 Em

Gtr.1 E|-------------|-------------|-------------|-------------|

H|---1-1-1-0---|---0-0-0-----|-------------|-------0-----|

G|---2-2-2---2-|---0-0-0-2-0-|---2-2-2-----|-----0---0---|

D|-------------|-------------|---1-1-1-1-2-|---2-------2-|

A|-0-----------|-------------|-2-----------|-------------|

E|-------------|-0-----------|-------------|-0-----------|

 

 

epa oa (opa 6- cpya) paec oo pee. o cye ee

e, aae pa cpay co II-o aa 4- cpy.

pee a popac 2 paa, oce aop(Em) yo epepa

oo oce opoo paa. ep - oce H7 cpay epexoe aao.