( )

A                                                   

 

peaop - ep

Haop eca oop - Dmitry Jemerov, 2:5030/654, yole@nnz.ru
cpae - Alex Ivanov, 2:5030/952.45

Intro:

Em D Am
e ---------------------------------------------5-5-5-5---
B --------------------8-8-7-5---8-7-5----------5-5-5-5---
G ----------9---9-9-------------------7---7-7------------
D ----------9---9-9-------------------7---7-7------------
A ----------7---7-7-------------------5---5-5------------
E ---7-9-10----------------------------------------------

fill1:

G ---2-4-5-----
D ---------2---

Em
a pa o aay y
Acao pa aae co oap,
D C
eoe c e y, aac op opae ,
Em H E7 fill1
C epoo xoa xo a oxoy .

Am Em
ea ep, ep,
Am
ea ep.

repeat intro

c oyx o o o,
o ao pe pya eec ape,
oa y oooo cpea cae po op aa,
a, ye acaa eca.

Am
ea ep, ep,
Em Am Em Am D C
e e a ca ep.
Em
Haepoe, oo.

Em F#m
G -------------------------------------------2-2-2---2--2-------
D ---5-5-2---5-5-2---5-5-5-2---5-4-2-4-4-4----------------4-2---

pop: Em Am D C

Em F#m
e -------------------------------------------5-5-5---5--5-------
B ---8-8-5---8-8-5---8-8-8-5---8-7-5-7-7-7----------------7-5---

e --17-17-17-17-17---17-17-15------------------------15--15-15-------------
B ----------------------------18-18---17-17-17-17-17-----------18-17--17---

e --------------------------------------------------------------------------
B --15-15-15-15-15-18---18-18-17-15--15---13-13-13-13-17---17-17-13-13--13--

yoy e oeo oo,
oey a py ea c yeoo eo,
ay yo epy , oa ep ey ,
Ho oa e coy oc, oey e

a pac ep. e
Hpac ep, ep.
Haepoe, oo.