( )

A                                                   

ao e acpoy ap a /D(.e. oca 6- cpyy, a o oa a 7- ay yaa yco c 5- opo)
riff1:
G#m H5 G#m F#m
G-----------------------------------------
D-6-6-6-6-6-6-6--9-9--6-6-6-6-6-6-6--4-4--
A-6-6-6-6-6-6-6--9-9--6-6-6-6-6-6-6--4-4--
D-6-6-6-6-6-6-6--9-9--6-6-6-6-6-6-6--4-4--
riff2:
G#m H5 G#m F#m
G--------------------------------
D-6-6-6-6--9-9--6-6-6-6--4-4-----
A-6-6-6-6--9-9--6-6-6-6--4-4-----
D-6-6-6-6--9-9--6-6-6-6--4-4-----
riff3:
G#m H5 G#m H5 G#m
G-------------------------------------------------------
D-6--6-6-6--13--13-13-13--6--6-6-6-8--13--13-13-13--6---- ..
A-6--6-6-6--13--13-13-13--6--6-6-6-6--13--13-13-13--6----
D-6--6-6-6--13--13-13-13--6--6-6-6-6--13--13-13-13--6----
oo pa ac
ED-0-3-5-7-7---7-5-3-0---
a
A-----4-6-6--6-4-----
E-4-7------------7-4-
( oaoc ocee a oo eyepe ca oyaeec)
aao - riff1-4 paa
ye - riff2:
ae oo paape
Oa o o co
e a p a op
ee xopoo
p ee
o aac aa