( )

A                                                   

(cpyypa a e, o ec a e pac y pae ypy
pyo oaoc.)

G|---------------------------------------------------------|
D|---------------------------------------------------------|
A|-----------------------------------------------------2-2-|
E|--3--3-3--6--6-6--3-3--3-2-2--3--3-3--6--6-6--3-3--3-----|

y eep:

AE-AE-AE!! cyae apa c aopa C# a e.

oee acpoa coo \"ae\" cea cp. y a INTRO
pooaec o y c apo:

G B(6) G F# G B(6) G C
e|----------------------------------------------------------|
H|----------------------------------------------------------|
G|------------------------------------------------------4-4-|
D|--5--5-5--8--8-8--5-5--5-4-4--5--5-5--8--8-8--5-5--5--4-4-|
A|--5--5-5--8--8-8--5-5--5-4-4--5--5-5--8--8-8--5-5--5--2-2-|
E|--3--3-3--6--6-6--3-3--3-2-2--3--3-3--6--6-6--3-3--3------|

pa c poo a ax.

eep ea,ac pooaec,a apa ccyae oo
ex ecax:

(*) (**)
G|---------------------------------------------------------|
D|---------------------------------------------------------|
A|-----------------------------------------------------2-2-|
E|--3--3-3--6--6-6--3-3--3-2-2--3--3-3--6--6-6--3-3--3-----|

(*) (**)

e|---------| e|-------|
H|---------| H|-------|
G|---------| G|-------|
D|--5-5-5--| D|--5-5--|
A|--5-5-5--| A|--5-5--|
E|--3-3-3--| E|--3-3--|

a paec ea,e yec apa ap ECEO
aoa. oo ae pa popeec e o ec.

POP( coae oo apa,co e ye):

e|-----------------------------------|
H|-----------------------------------|
G|-----------------------------------|
D|-----5-----7-----8-----7-----6-----|
A|-----5-----7-----8-----7-----6-----|
E|-----3-----5-----6-----5-----4-----|

5x 5x 5x 2x 2x (a pa coo oop aop)

CODA:

pae a

G B(6) G F# ae xo ooc ac:
ac ye oo p e!

G B(6) G C# ae coa xo o ooc ac:
ac ye oo p e!

Cocce CODA c apaaa: G B(6) C#