( )

A                                                   

y ya
RIFF 1:
Gtr.E||--------------------------------------------------|-------------------------------------------------|
H||--------------------------------------------------|-------------------------------------------------|
G||--------------------------------------------------|-------------------------------------------------|
D||--------------------------------------------------|-------------------------------------------------|
A||--------8--7-----------5-----------7-----------5--|-------8--7-----------5-----------7--------5--2--|
E||-0--0-0-6--5--------0--3--------0--5--------0--3--|----0-0-6--5--------0--3--------0--5--------3--0-|
Gtr.E|---------------------------------------------------|--------------------------------------------------||
H|---------------------------------------------------|--------------------------------------------------||
G|---------------------------------------------------|--------------------------------------------------||
D|---------------------------------------------------|--------------------------------------------------||
A|---------8--7-----------5-----------7-----------5--|-------8--7-----------5--------1--2--1--0---------||
E|--0--0-0-6--5--------0--3--------0--5--------0--3--|----0-0-6--5--------0--3--------------------3--0--||
VERSE 1
VERSE 2:
VoiceE|-----------------------------------------------------------------------------------------------------------------------------|
B|-----------------------------------------------------------------------------------------------------------------------------|
G|-------------------2---4---------------------------------------2---2---2-----------------------------------------------------|
D|-------2----2---5-------------2--2--5-5-5-----4----2-----2-2--------------5--------------------------------------------------|

A|-----------------------------------------------------------------------------------------------------------------------------|
E|---- Ya vsyo vremya plyl po techeniyu dne - ey, byli snom mechty -y. -----------------------------------------------|
| | | |
Gtr. E|-------------------------------------------------|-- 2/4 measure ----------|-------------------------------------------------|
H|-------------------------------------------------|-------------------------|------/10-10-10-------8--------------------------|
G|-------------------------------------------------|-------------------------|----------------9--7-----------7--7--6-----------|
D|-2--------------2-----2-----------------2-----2--|----------------2-----2--|----------------------------5-----------5~~~~----|
A|-2--------------2-----2-----------------2-----2--|----------------2-----2--|-------------------------------------------------|
E|-0-----------0--0-----0--------------0--0-----0--|-------------0--0-----0--|-------------------------------------------------|
...
VoiceE|---------------------------------------------------------------------------------------------------|
H|---------------------------------------------------------------------------------------------------|
G|-------2---2-2-------------------------------------------2---2--2----5-5---4-----------------------|
D|-----------------5-----5-----4-----2-----4---------------------------------------------------------|
A|---------------------------------------------------------------------------------------------------|
E|---- Ya tvoyo dy - ha - n'e sly - shu za svo -ey spino - oy. -------------------|
| | |
Gtr. E|-------------------------------------------------|-------------------------------------------------|
H|-------------------------------------------------|-------------------------------------------------|
G|-2-----------------------------------------------|-5-----------------------------------------------|
D|-2-----------------------------------------------|-5-----------------------------------------------|
A|-0-------------------------------------------3-3-|-3-----------------------------------------------|
E|-------------------------------------------------|-------------------------------------------------|
CHORUS:
VoiceE|---------------------------------------------------------------------------------------------------|
H|---------------------------------------------------------------------------------------------------|
G|-------------------4-2-------------------2----2----------------------------------------------------|
D|--2----------5-----------------------5--------------2---2---0--2---0----5-----4--------------------|
A|---------------------------------------------------------------------------------------------------|
E| Put' v ni - kuda. Ya zo - vu, no mne v otvet ni slo - va ------------------|
| | |
Gtr. E|-------------------------------------------------|-------------------------------------------------|
H|-------------------------------------------------|-------------------------------------------------|
G|-------------------------------------------------|-------------------------------------------------|
D|----------------2-----7-----------------7-----5--|(5)-------------5-----5-----4--------4--------2--|
A|----------------2-----5-----5--5--5--5--5-----3--|(3)-3--3--3--3--3-----3-----3-----3-----------2--|
E|-0--0--0--0--0-----------------------------------|----------------------------------------3-----0--|

VoiceE|---------------------------------------------------------------------------------------------------|
H|---------------------------------------------------------------------------------------------------|
G|-------------------4-2-------------------2----2----------2----2-2---2------------------------------|
D|--2----------5-----------------------5----------------5-----5-----------5-----4--------------------|
A|---------------------------------------------------------------------------------------------------|
E| Put' v ni - kuda. Iz-pod nog mo -ih uhodit zemlya - a ------------------|
| | |
Gtr. E|-------------------------------------------------|-------------------------------------------------|
H|-------------------------------------------------|-------------------------------------------------|
G|-------------------------------------------------|-------------------------------------------------|
D|(2)-------------2-----7-----------------7-----5--|(5)-------------5-----------5--4--0--5--4--0--2--|
A|(2)-------------2-----5-----5--5--5--5--5-----3--|(3)-3--3--3--3--3-----5-----------------------2--|
E|(0)-0--0--0--0-----------------------------------|----------------------3-----------------------0--|