( )

A                                                   

oae, oayca oop a ca:
:Cepee p
E-mail:
oop: a
pya:eo
ec:Cyoe pe
INTRO:
RIFF 1:(Play 2 times)
E|--------------------------------|---------9----------------------|

H|--12--11------9-----------------|-12--11---------12--11----------|
G|----------11---------11--9------|--------------------------------|
D|--------------------------------|--------------------------------|
A|--------------------------------|--------------------------------|
E|--------------------------------|--------------------------------|
E|--------------------------------|-------------9------------------|
H|--12--11------9-----------------|-12--11-------------------------|
G|----------11---------11--9------|---------11---------------------|
D|--------------------------------|--------------------------------|
A|--------------------------------|--------------------------------|
E|--------------------------------|--------------------------------|
RIFF 2:(sounds like w/wah on each note)
E|----------------------------------|---------------------------------|
H|----------------------5-----------|-----------------------5---------|
G|--7---6---4---6---7-------7---6---|-7---6---4---6---7-------6-------|
D|----------------------------------|---------------------------------|
A|----------------------------------|---------------------------------|
E|----------------------------------|---------------------------------|
RIFF 3:
Gtr. E|--------------------------------------|-------------------------------------|
H|--------------------------------------|-------------------------------------|
G|--------------------------------------|-------------------------------------|
D|--2-h4-----4-----5-----2-h4-----------|-2-h4-----4-----5--------------------|
A|--2--------2-----2-----2-----0--2--3--|-2--------2-----2-----------1~~~~~~--|
E|--------0-----0-----0-----------------|-------0-----0-----0--2--3-----------|
Gtr. E|--------------------------------------|-------------------------------------|
H|--------------------------------------|-------------------------------------|
G|--------------------------------------|-------------------R-----------------|
D|--2-h4-----4-----5-----2-h4-----------|-2-h4-----4-----5--E-----------------|
A|--2--------2-----2-----2-----0--2--3--|-2--------2-----2--S-----------------|
E|--------0-----0-----0-----------------|-------0-----0-----T-----------------|
VERSE:
VoiceE|----------------------------------------------------------------------------|
H|--7--------------------------7--7---7--8-----7----7--5----5------7----5-----|
G|-------4-----------------------------------------------------------------7--|
D|----------------------------------------------------------------------------|
A|----------------------------------------------------------------------------|
E|- vremya, prizrak svobo - dy na ko - ne. Krov' po ko- |
| | |
Gtr. E|--------------------------------------|-------------------------------------|
H|--------------------------------------|-------------------------------------|
G|--------------------2-----------------|-------------------------------------|
D|--4-----------------4----4h5p4-p0-----|-------------------------------------|
A|--4-----------------4--------------2--|-------------2-----2-----4-----5-----|
E|--2--------2--2--2--2-----------------|-3--------------3-----3-----3-----3--|

VoiceE|---------------------------------------5------------------------------------|
H|--7--------------------------7--7---7---------8----7-8----7--5-----7--8--7--|
G|-------4--------------------------------------------------------------------|
D|----------------------------------------------------------------------------|
A|----------------------------------------------------------------------------|
E| -le -no, slovno v kakom - to dikom sne -e. Mechetsya |
| | |
Gtr. E|--------------------------------------|-------------------------------------|
H|--------------------------------------|-------------------------------------|
G|--------------------2-----------------|-------------------------------------|
D|--4-----------------4----4h5p4-p0-----|-------------------------------------|
A|--4-----------------4--------------2--|-------------2-----2-----4-----5-----|
E|--2--------2--2--2--2-----------------|-3--------------3-----3-----3-----3--|
CHORUS goes with RIFF 2, singing note-by-note.