( )

A                                                   

Pae ox aax...

 

Em Em/G Hm7 Em Em/G

e|-----------------|-----------------|-----------------|

H|-----------------|-----------------|-----------------|

G|-------0-------0-|-------0---------|-------0-------0-|

D|-----4-------4---|-----7---7-------|-----4-------4---|

A|---2-------2-----|---5-------5---5-|---2-------2-----|

E|-0-------3-------|-7-----------7---|-0-------3-------|

 

Hm7 Em Em/G Hm7

e|-----------------|-----------------|-----------------|

H|-----------------|-----------------|-----------------|

G|-------0-----7---|-------0-------0-|-------0---------|

D|-----7---7-----0-|-----4-------4---|-----7---7-------|

A|---5-------5-----|---2-------2-----|---5-------5---5-|

E|-7---------------|-0-------3-------|-7-----------7---|

 

 

Em Em/G Hm7 Em Em/G Hm7

Pae ox aax opaac ocp

e|-----------------|-----------------|-----------------|-----------------|

H|-----------------|-----------------|-----------------|-----3-----3-----|

G|-------0-------0-|-------0---------|-------0-------0-|---0-----0---0---|

D|-----4-------4---|-----7---7-------|-----4-------4---|-------0-------0-|

A|---2-------2-----|---5-------5---5-|---2-------2-----|-2---------------|

E|-0-------3-------|-7-----------7---|-0-------3-------|-----------------|

 

 

Em Em/G Hm7 Em Em/G Hm7

eep acoa aa pacce ce...

e|-----------------|-----------------|-----------------|-----------------|

H|-----------------|-----------------|-----------------|-----3-----3-----|

G|-------0-------0-|-------0---------|-------0-------0-|---0-----0---0---|

D|-----4-------4---|-----7---7-------|-----4-------4---|-------0-------0-|

A|---2-------2-----|---5-------5---5-|---2-------2-----|-2---------------|

E|-0-------3-------|-7-----------7---|-0-------3-------|-----------------|

 

G Hm7 Em Em/G Hm7

o-o poxo o ee caoc e o cee

e|-----------------|-----------------|-----------------|-----------------|

H|-----------------|-----------------|-----------------|-----3-----3-----|

G|-------0---------|-------0---------|-------0-------0-|---0-----0---0---|

D|-----0---0-------|-----7---7-------|-----4-------4---|-------0-------0-|

A|---2-------2---2-|---5-------5---5-|---2-------2-----|-2---------------|

E|-3-----------3---|-7-----------7---|-0-------3-------|-----------------|

 

Em Em/G Hm7 Em Em/G Hm7...

o o e - e e...

e|-----------------|-----------------|-----------------|-----------------|

H|-----------------|-----------------|-----------------|-----3-----3-----|

G|-------0-------0-|-------0---------|-------0-------0-|---0-----0---0---|

D|-----4-------4---|-----7---7-------|-----4-------4---|-------0-------0-|

A|---2-------2-----|---5-------5---5-|---2-------2-----|-2---------------|

E|-0-------3-------|-7-----------7---|-0-------3-------|-----------------|

 

Em Em/G Hm7 Em Em/G Hm7

Pae ox aax opaaac o.

Em Em/G Hm7 Em Em/G Hm7

eep oa a oa o - o aa c.

G Hm7 Em Em/G Hm7

o a paccee e ae a aac o e,

Em Em/G Hm7 Em Em/G Hm7...

o cx op capo - a e ax pepa...